ISO-10303-21;
HEADER;
FILE_DESCRIPTION(('STEP AP214'),'1');
FILE_NAME('HALDERN_EH_23150_0036.stp','2017-05-09T08:34:42',('TraceParts'),('TraceParts S.A.'),'Spatial InterOp 3D',' ',' ');
FILE_SCHEMA(('automotive_design'));
ENDSEC;
DATA;
#1=MECHANICAL_DESIGN_GEOMETRIC_PRESENTATION_REPRESENTATION(' ',(#10,#11,#12,#13,#14,#15,#16,#17,#18,#19,#20,#21,#22),#6);
#2=PRODUCT_DEFINITION_CONTEXT('',#23,'design');
#3=APPLICATION_PROTOCOL_DEFINITION('INTERNATIONAL STANDARD','automotive_design',1994,#23);
#4=PRODUCT_CATEGORY_RELATIONSHIP('NONE','NONE',#24,#25);
#5=SHAPE_DEFINITION_REPRESENTATION(#26,#27);
#6= (GEOMETRIC_REPRESENTATION_CONTEXT(3)GLOBAL_UNCERTAINTY_ASSIGNED_CONTEXT((#30))GLOBAL_UNIT_ASSIGNED_CONTEXT((#32,#33,#34))REPRESENTATION_CONTEXT('NONE','WORKSPACE'));
#10=STYLED_ITEM('',(#36),#37);
#11=STYLED_ITEM('',(#38),#39);
#12=STYLED_ITEM('',(#40),#41);
#13=STYLED_ITEM('',(#42),#43);
#14=STYLED_ITEM('',(#44),#45);
#15=STYLED_ITEM('',(#46),#47);
#16=STYLED_ITEM('',(#48),#49);
#17=STYLED_ITEM('',(#50),#51);
#18=STYLED_ITEM('',(#52),#53);
#19=STYLED_ITEM('',(#54),#55);
#20=STYLED_ITEM('',(#56),#57);
#21=STYLED_ITEM('',(#58),#59);
#22=STYLED_ITEM('',(#60),#61);
#23=APPLICATION_CONTEXT(' ');
#24=PRODUCT_CATEGORY('part','NONE');
#25=PRODUCT_RELATED_PRODUCT_CATEGORY('detail',' ',(#62));
#26=PRODUCT_DEFINITION_SHAPE('NONE','NONE',#63);
#27=ADVANCED_BREP_SHAPE_REPRESENTATION('HALDERN_EH_23150_0036',(#61,#64),#6);
#30=UNCERTAINTY_MEASURE_WITH_UNIT(LENGTH_MEASURE(1.0E-006),#32,'','');
#32= (CONVERSION_BASED_UNIT('MILLIMETRE',#67)LENGTH_UNIT()NAMED_UNIT(#70));
#33= (NAMED_UNIT(#72)PLANE_ANGLE_UNIT()SI_UNIT($,.RADIAN.));
#34= (NAMED_UNIT(#72)SOLID_ANGLE_UNIT()SI_UNIT($,.STERADIAN.));
#36=PRESENTATION_STYLE_ASSIGNMENT((#78));
#37=ADVANCED_FACE('',(#79),#80,.T.);
#38=PRESENTATION_STYLE_ASSIGNMENT((#81));
#39=ADVANCED_FACE('',(#82),#83,.T.);
#40=PRESENTATION_STYLE_ASSIGNMENT((#84));
#41=ADVANCED_FACE('',(#85),#86,.T.);
#42=PRESENTATION_STYLE_ASSIGNMENT((#87));
#43=ADVANCED_FACE('',(#88),#89,.T.);
#44=PRESENTATION_STYLE_ASSIGNMENT((#90));
#45=ADVANCED_FACE('',(#91),#92,.T.);
#46=PRESENTATION_STYLE_ASSIGNMENT((#93));
#47=ADVANCED_FACE('',(#94),#95,.T.);
#48=PRESENTATION_STYLE_ASSIGNMENT((#96));
#49=ADVANCED_FACE('',(#97),#98,.T.);
#50=PRESENTATION_STYLE_ASSIGNMENT((#99));
#51=ADVANCED_FACE('',(#100),#101,.F.);
#52=PRESENTATION_STYLE_ASSIGNMENT((#102));
#53=ADVANCED_FACE('',(#103),#104,.T.);
#54=PRESENTATION_STYLE_ASSIGNMENT((#105));
#55=ADVANCED_FACE('',(#106),#107,.T.);
#56=PRESENTATION_STYLE_ASSIGNMENT((#108));
#57=ADVANCED_FACE('',(#109),#110,.F.);
#58=PRESENTATION_STYLE_ASSIGNMENT((#111));
#59=ADVANCED_FACE('',(#112),#113,.T.);
#60=PRESENTATION_STYLE_ASSIGNMENT((#114));
#61=MANIFOLD_SOLID_BREP('HALDERN_EH_23150_0036',#115);
#62=PRODUCT('HALDERN_EH_23150_0036','HALDERN_EH_23150_0036','PART-HALDERN_EH_23150_0036-DESC',(#116));
#63=PRODUCT_DEFINITION('NONE','NONE',#117,#2);
#64=AXIS2_PLACEMENT_3D('',#118,#119,#120);
#67=LENGTH_MEASURE_WITH_UNIT(LENGTH_MEASURE(1.0),#121);
#70=DIMENSIONAL_EXPONENTS(1.0,0.0,0.0,0.0,0.0,0.0,0.0);
#72=DIMENSIONAL_EXPONENTS(0.0,0.0,0.0,0.0,0.0,0.0,0.0);
#78=SURFACE_STYLE_USAGE(.BOTH.,#122);
#79=FACE_OUTER_BOUND('',#123,.T.);
#80=PLANE('',#124);
#81=SURFACE_STYLE_USAGE(.BOTH.,#125);
#82=FACE_OUTER_BOUND('',#126,.T.);
#83=PLANE('',#127);
#84=SURFACE_STYLE_USAGE(.BOTH.,#128);
#85=FACE_OUTER_BOUND('',#129,.T.);
#86=PLANE('',#130);
#87=SURFACE_STYLE_USAGE(.BOTH.,#131);
#88=FACE_OUTER_BOUND('',#132,.T.);
#89=PLANE('',#133);
#90=SURFACE_STYLE_USAGE(.BOTH.,#134);
#91=FACE_OUTER_BOUND('',#135,.T.);
#92=PLANE('',#136);
#93=SURFACE_STYLE_USAGE(.BOTH.,#137);
#94=FACE_OUTER_BOUND('',#138,.T.);
#95=PLANE('',#139);
#96=SURFACE_STYLE_USAGE(.BOTH.,#140);
#97=FACE_OUTER_BOUND('',#141,.T.);
#98=PLANE('',#142);
#99=SURFACE_STYLE_USAGE(.BOTH.,#143);
#100=FACE_OUTER_BOUND('',#144,.T.);
#101=CYLINDRICAL_SURFACE('',#145,17.0);
#102=SURFACE_STYLE_USAGE(.BOTH.,#146);
#103=FACE_OUTER_BOUND('',#147,.T.);
#104=PLANE('',#148);
#105=SURFACE_STYLE_USAGE(.BOTH.,#149);
#106=FACE_OUTER_BOUND('',#150,.T.);
#107=CYLINDRICAL_SURFACE('',#151,37.0);
#108=SURFACE_STYLE_USAGE(.BOTH.,#152);
#109=FACE_OUTER_BOUND('',#153,.T.);
#110=PLANE('',#154);
#111=SURFACE_STYLE_USAGE(.BOTH.,#155);
#112=FACE_OUTER_BOUND('',#156,.T.);
#113=PLANE('',#157);
#114=SURFACE_STYLE_USAGE(.BOTH.,#158);
#115=CLOSED_SHELL('',(#37,#39,#41,#43,#45,#47,#49,#51,#53,#55,#57,#59));
#116=PRODUCT_CONTEXT('',#23,'mechanical');
#117=PRODUCT_DEFINITION_FORMATION_WITH_SPECIFIED_SOURCE(' ','NONE',#62,.NOT_KNOWN.);
#118=CARTESIAN_POINT('',(0.0,0.0,0.0));
#119=DIRECTION('',(0.0,0.0,1.0));
#120=DIRECTION('',(1.0,0.0,0.0));
#121= (NAMED_UNIT(#70)LENGTH_UNIT()SI_UNIT(.MILLI.,.METRE.));
#122=SURFACE_SIDE_STYLE('',(#160));
#123=EDGE_LOOP('',(#161,#162,#163,#164));
#124=AXIS2_PLACEMENT_3D('',#165,#166,#167);
#125=SURFACE_SIDE_STYLE('',(#168));
#126=EDGE_LOOP('',(#169,#170,#171,#172));
#127=AXIS2_PLACEMENT_3D('',#173,#174,#175);
#128=SURFACE_SIDE_STYLE('',(#176));
#129=EDGE_LOOP('',(#177,#178,#179,#180,#181));
#130=AXIS2_PLACEMENT_3D('',#182,#183,#184);
#131=SURFACE_SIDE_STYLE('',(#185));
#132=EDGE_LOOP('',(#186,#187,#188,#189));
#133=AXIS2_PLACEMENT_3D('',#190,#191,#192);
#134=SURFACE_SIDE_STYLE('',(#193));
#135=EDGE_LOOP('',(#194,#195,#196,#197));
#136=AXIS2_PLACEMENT_3D('',#198,#199,#200);
#137=SURFACE_SIDE_STYLE('',(#201));
#138=EDGE_LOOP('',(#202,#203,#204,#205,#206));
#139=AXIS2_PLACEMENT_3D('',#207,#208,#209);
#140=SURFACE_SIDE_STYLE('',(#210));
#141=EDGE_LOOP('',(#211,#212,#213,#214,#215));
#142=AXIS2_PLACEMENT_3D('',#216,#217,#218);
#143=SURFACE_SIDE_STYLE('',(#219));
#144=EDGE_LOOP('',(#220,#221,#222,#223));
#145=AXIS2_PLACEMENT_3D('',#224,#225,#226);
#146=SURFACE_SIDE_STYLE('',(#227));
#147=EDGE_LOOP('',(#228,#229,#230,#231,#232));
#148=AXIS2_PLACEMENT_3D('',#233,#234,#235);
#149=SURFACE_SIDE_STYLE('',(#236));
#150=EDGE_LOOP('',(#237,#238,#239,#240));
#151=AXIS2_PLACEMENT_3D('',#241,#242,#243);
#152=SURFACE_SIDE_STYLE('',(#244));
#153=EDGE_LOOP('',(#245,#246,#247,#248,#249,#250,#251,#252));
#154=AXIS2_PLACEMENT_3D('',#253,#254,#255);
#155=SURFACE_SIDE_STYLE('',(#256));
#156=EDGE_LOOP('',(#257,#258,#259,#260,#261,#262,#263,#264));
#157=AXIS2_PLACEMENT_3D('',#265,#266,#267);
#158=SURFACE_SIDE_STYLE('',(#268));
#160=SURFACE_STYLE_FILL_AREA(#269);
#161=ORIENTED_EDGE('',*,*,#270,.F.);
#162=ORIENTED_EDGE('',*,*,#271,.F.);
#163=ORIENTED_EDGE('',*,*,#272,.F.);
#164=ORIENTED_EDGE('',*,*,#273,.F.);
#165=CARTESIAN_POINT('',(0.0,-1.31952621972685E-014,12.0));
#166=DIRECTION('',(-0.707106781186547,2.16481864267984E-016,0.707106781186548));
#167=DIRECTION('',(0.0,-1.0,3.06151588455594E-016));
#168=SURFACE_STYLE_FILL_AREA(#274);
#169=ORIENTED_EDGE('',*,*,#275,.F.);
#170=ORIENTED_EDGE('',*,*,#276,.F.);
#171=ORIENTED_EDGE('',*,*,#277,.F.);
#172=ORIENTED_EDGE('',*,*,#278,.F.);
#173=CARTESIAN_POINT('',(0.0,-1.31952621972685E-014,12.0));
#174=DIRECTION('',(-0.707106781186547,2.16481864267984E-016,0.707106781186548));
#175=DIRECTION('',(0.0,-1.0,3.06151588455594E-016));
#176=SURFACE_STYLE_FILL_AREA(#279);
#177=ORIENTED_EDGE('',*,*,#270,.T.);
#178=ORIENTED_EDGE('',*,*,#280,.T.);
#179=ORIENTED_EDGE('',*,*,#281,.T.);
#180=ORIENTED_EDGE('',*,*,#282,.F.);
#181=ORIENTED_EDGE('',*,*,#283,.T.);
#182=CARTESIAN_POINT('',(0.0,17.0000000000001,50.0));
#183=DIRECTION('',(0.0,-1.0,0.0));
#184=DIRECTION('',(0.0,0.0,-1.0));
#185=SURFACE_STYLE_FILL_AREA(#284);
#186=ORIENTED_EDGE('',*,*,#273,.T.);
#187=ORIENTED_EDGE('',*,*,#285,.T.);
#188=ORIENTED_EDGE('',*,*,#286,.T.);
#189=ORIENTED_EDGE('',*,*,#280,.F.);
#190=CARTESIAN_POINT('',(0.0,37.0000000000002,50.0));
#191=DIRECTION('',(-1.0,0.0,0.0));
#192=DIRECTION('',(0.0,0.0,-1.0));
#193=SURFACE_STYLE_FILL_AREA(#287);
#194=ORIENTED_EDGE('',*,*,#276,.T.);
#195=ORIENTED_EDGE('',*,*,#288,.T.);
#196=ORIENTED_EDGE('',*,*,#289,.T.);
#197=ORIENTED_EDGE('',*,*,#290,.F.);
#198=CARTESIAN_POINT('',(0.0,-16.9999999999999,50.0));
#199=DIRECTION('',(-1.0,0.0,0.0));
#200=DIRECTION('',(0.0,0.0,-1.0));
#201=SURFACE_STYLE_FILL_AREA(#291);
#202=ORIENTED_EDGE('',*,*,#275,.T.);
#203=ORIENTED_EDGE('',*,*,#292,.T.);
#204=ORIENTED_EDGE('',*,*,#293,.T.);
#205=ORIENTED_EDGE('',*,*,#294,.T.);
#206=ORIENTED_EDGE('',*,*,#288,.F.);
#207=CARTESIAN_POINT('',(363.0,-16.9999999999999,50.0));
#208=DIRECTION('',(0.0,1.0,0.0));
#209=DIRECTION('',(0.0,0.0,1.0));
#210=SURFACE_STYLE_FILL_AREA(#295);
#211=ORIENTED_EDGE('',*,*,#272,.T.);
#212=ORIENTED_EDGE('',*,*,#296,.T.);
#213=ORIENTED_EDGE('',*,*,#297,.T.);
#214=ORIENTED_EDGE('',*,*,#298,.T.);
#215=ORIENTED_EDGE('',*,*,#285,.F.);
#216=CARTESIAN_POINT('',(363.0,37.0,50.0));
#217=DIRECTION('',(0.0,1.0,0.0));
#218=DIRECTION('',(0.0,0.0,1.0));
#219=SURFACE_STYLE_FILL_AREA(#299);
#220=ORIENTED_EDGE('',*,*,#300,.T.);
#221=ORIENTED_EDGE('',*,*,#293,.F.);
#222=ORIENTED_EDGE('',*,*,#301,.T.);
#223=ORIENTED_EDGE('',*,*,#282,.T.);
#224=CARTESIAN_POINT('',(363.0,1.13686837721616E-013,50.0));
#225=DIRECTION('',(0.0,0.0,-1.0));
#226=DIRECTION('',(0.0,-1.0,0.0));
#227=SURFACE_STYLE_FILL_AREA(#302);
#228=ORIENTED_EDGE('',*,*,#277,.T.);
#229=ORIENTED_EDGE('',*,*,#290,.T.);
#230=ORIENTED_EDGE('',*,*,#303,.T.);
#231=ORIENTED_EDGE('',*,*,#304,.F.);
#232=ORIENTED_EDGE('',*,*,#305,.T.);
#233=CARTESIAN_POINT('',(0.0,-37.0,50.0));
#234=DIRECTION('',(0.0,-1.0,0.0));
#235=DIRECTION('',(0.0,0.0,-1.0));
#236=SURFACE_STYLE_FILL_AREA(#306);
#237=ORIENTED_EDGE('',*,*,#307,.T.);
#238=ORIENTED_EDGE('',*,*,#297,.F.);
#239=ORIENTED_EDGE('',*,*,#308,.T.);
#240=ORIENTED_EDGE('',*,*,#304,.T.);
#241=CARTESIAN_POINT('',(363.0,0.0,50.0));
#242=DIRECTION('',(0.0,0.0,-1.0));
#243=DIRECTION('',(0.0,1.0,0.0));
#244=SURFACE_STYLE_FILL_AREA(#309);
#245=ORIENTED_EDGE('',*,*,#271,.T.);
#246=ORIENTED_EDGE('',*,*,#283,.F.);
#247=ORIENTED_EDGE('',*,*,#301,.F.);
#248=ORIENTED_EDGE('',*,*,#292,.F.);
#249=ORIENTED_EDGE('',*,*,#278,.T.);
#250=ORIENTED_EDGE('',*,*,#305,.F.);
#251=ORIENTED_EDGE('',*,*,#308,.F.);
#252=ORIENTED_EDGE('',*,*,#296,.F.);
#253=CARTESIAN_POINT('',(197.460355260539,5.6843418860808E-014,50.0));
#254=DIRECTION('',(0.0,0.0,-1.0));
#255=DIRECTION('',(1.0,0.0,0.0));
#256=SURFACE_STYLE_FILL_AREA(#310);
#257=ORIENTED_EDGE('',*,*,#298,.F.);
#258=ORIENTED_EDGE('',*,*,#307,.F.);
#259=ORIENTED_EDGE('',*,*,#303,.F.);
#260=ORIENTED_EDGE('',*,*,#289,.F.);
#261=ORIENTED_EDGE('',*,*,#294,.F.);
#262=ORIENTED_EDGE('',*,*,#300,.F.);
#263=ORIENTED_EDGE('',*,*,#281,.F.);
#264=ORIENTED_EDGE('',*,*,#286,.F.);
#265=CARTESIAN_POINT('',(197.460355260539,8.5265128291212E-014,0.0));
#266=DIRECTION('',(0.0,0.0,-1.0));
#267=DIRECTION('',(1.0,0.0,0.0));
#268=SURFACE_STYLE_FILL_AREA(#311);
#269=FILL_AREA_STYLE('',(#312));
#270=EDGE_CURVE('',#313,#314,#315,.T.);
#271=EDGE_CURVE('',#316,#313,#317,.T.);
#272=EDGE_CURVE('',#318,#316,#319,.T.);
#273=EDGE_CURVE('',#314,#318,#320,.T.);
#274=FILL_AREA_STYLE('',(#321));
#275=EDGE_CURVE('',#322,#323,#324,.T.);
#276=EDGE_CURVE('',#325,#322,#326,.T.);
#277=EDGE_CURVE('',#327,#325,#328,.T.);
#278=EDGE_CURVE('',#323,#327,#329,.T.);
#279=FILL_AREA_STYLE('',(#330));
#280=EDGE_CURVE('',#314,#331,#332,.T.);
#281=EDGE_CURVE('',#331,#333,#334,.T.);
#282=EDGE_CURVE('',#335,#333,#336,.T.);
#283=EDGE_CURVE('',#335,#313,#337,.T.);
#284=FILL_AREA_STYLE('',(#338));
#285=EDGE_CURVE('',#318,#339,#340,.T.);
#286=EDGE_CURVE('',#339,#331,#341,.T.);
#287=FILL_AREA_STYLE('',(#342));
#288=EDGE_CURVE('',#322,#343,#344,.T.);
#289=EDGE_CURVE('',#343,#345,#346,.T.);
#290=EDGE_CURVE('',#325,#345,#347,.T.);
#291=FILL_AREA_STYLE('',(#348));
#292=EDGE_CURVE('',#323,#349,#350,.T.);
#293=EDGE_CURVE('',#349,#351,#352,.T.);
#294=EDGE_CURVE('',#351,#343,#353,.T.);
#295=FILL_AREA_STYLE('',(#354));
#296=EDGE_CURVE('',#316,#355,#356,.T.);
#297=EDGE_CURVE('',#355,#357,#358,.T.);
#298=EDGE_CURVE('',#357,#339,#359,.T.);
#299=FILL_AREA_STYLE('',(#360));
#300=EDGE_CURVE('',#333,#351,#361,.T.);
#301=EDGE_CURVE('',#349,#335,#362,.T.);
#302=FILL_AREA_STYLE('',(#363));
#303=EDGE_CURVE('',#345,#364,#365,.T.);
#304=EDGE_CURVE('',#366,#364,#367,.T.);
#305=EDGE_CURVE('',#366,#327,#368,.T.);
#306=FILL_AREA_STYLE('',(#369));
#307=EDGE_CURVE('',#364,#357,#370,.T.);
#308=EDGE_CURVE('',#355,#366,#371,.T.);
#309=FILL_AREA_STYLE('',(#372));
#310=FILL_AREA_STYLE('',(#373));
#311=FILL_AREA_STYLE('',(#374));
#312=FILL_AREA_STYLE_COLOUR('',#375);
#313=VERTEX_POINT('',#376);
#314=VERTEX_POINT('',#377);
#315=LINE('',#378,#379);
#316=VERTEX_POINT('',#380);
#317=LINE('',#381,#382);
#318=VERTEX_POINT('',#383);
#319=LINE('',#384,#385);
#320=LINE('',#386,#387);
#321=FILL_AREA_STYLE_COLOUR('',#388);
#322=VERTEX_POINT('',#389);
#323=VERTEX_POINT('',#390);
#324=LINE('',#391,#392);
#325=VERTEX_POINT('',#393);
#326=LINE('',#394,#395);
#327=VERTEX_POINT('',#396);
#328=LINE('',#397,#398);
#329=LINE('',#399,#400);
#330=FILL_AREA_STYLE_COLOUR('',#401);
#331=VERTEX_POINT('',#402);
#332=LINE('',#403,#404);
#333=VERTEX_POINT('',#405);
#334=LINE('',#406,#407);
#335=VERTEX_POINT('',#408);
#336=LINE('',#409,#410);
#337=LINE('',#411,#412);
#338=FILL_AREA_STYLE_COLOUR('',#413);
#339=VERTEX_POINT('',#414);
#340=LINE('',#415,#416);
#341=LINE('',#417,#418);
#342=FILL_AREA_STYLE_COLOUR('',#419);
#343=VERTEX_POINT('',#420);
#344=LINE('',#421,#422);
#345=VERTEX_POINT('',#423);
#346=LINE('',#424,#425);
#347=LINE('',#426,#427);
#348=FILL_AREA_STYLE_COLOUR('',#428);
#349=VERTEX_POINT('',#429);
#350=LINE('',#430,#431);
#351=VERTEX_POINT('',#432);
#352=LINE('',#433,#434);
#353=LINE('',#435,#436);
#354=FILL_AREA_STYLE_COLOUR('',#437);
#355=VERTEX_POINT('',#438);
#356=LINE('',#439,#440);
#357=VERTEX_POINT('',#441);
#358=LINE('',#442,#443);
#359=LINE('',#444,#445);
#360=FILL_AREA_STYLE_COLOUR('',#446);
#361=CIRCLE('',#447,17.0);
#362=CIRCLE('',#448,17.0);
#363=FILL_AREA_STYLE_COLOUR('',#449);
#364=VERTEX_POINT('',#450);
#365=LINE('',#451,#452);
#366=VERTEX_POINT('',#453);
#367=LINE('',#454,#455);
#368=LINE('',#456,#457);
#369=FILL_AREA_STYLE_COLOUR('',#458);
#370=CIRCLE('',#459,37.0);
#371=CIRCLE('',#460,37.0);
#372=FILL_AREA_STYLE_COLOUR('',#461);
#373=FILL_AREA_STYLE_COLOUR('',#462);
#374=FILL_AREA_STYLE_COLOUR('',#463);
#375=COLOUR_RGB('',0.509803950786591,0.509803950786591,0.588235318660736);
#376=CARTESIAN_POINT('',(38.0,17.0000000000001,50.0));
#377=CARTESIAN_POINT('',(0.0,17.0000000000001,12.0));
#378=CARTESIAN_POINT('',(9.49999999999999,17.0000000000001,21.5));
#379=VECTOR('',#464,1.0);
#380=CARTESIAN_POINT('',(38.0,37.0,50.0));
#381=CARTESIAN_POINT('',(38.0,4.04167186804672E-014,50.0));
#382=VECTOR('',#465,1.0);
#383=CARTESIAN_POINT('',(0.0,37.0,12.0));
#384=CARTESIAN_POINT('',(100.25,37.0,112.25));
#385=VECTOR('',#466,1.0);
#386=CARTESIAN_POINT('',(0.0,18.5000000000001,12.0));
#387=VECTOR('',#467,1.0);
#388=COLOUR_RGB('',0.509803950786591,0.509803950786591,0.588235318660736);
#389=CARTESIAN_POINT('',(0.0,-16.9999999999999,12.0));
#390=CARTESIAN_POINT('',(38.0,-16.9999999999999,50.0));
#391=CARTESIAN_POINT('',(100.25,-16.9999999999999,112.25));
#392=VECTOR('',#468,1.0);
#393=CARTESIAN_POINT('',(0.0,-37.0,12.0));
#394=CARTESIAN_POINT('',(0.0,-8.49999999999996,12.0));
#395=VECTOR('',#469,1.0);
#396=CARTESIAN_POINT('',(38.0,-37.0,50.0));
#397=CARTESIAN_POINT('',(9.49999999999999,-37.0,21.5));
#398=VECTOR('',#470,1.0);
#399=CARTESIAN_POINT('',(38.0,4.04167186804672E-014,50.0));
#400=VECTOR('',#471,1.0);
#401=COLOUR_RGB('',0.509803950786591,0.509803950786591,0.588235318660736);
#402=CARTESIAN_POINT('',(0.0,17.0000000000001,0.0));
#403=CARTESIAN_POINT('',(0.0,17.0000000000001,50.0));
#404=VECTOR('',#472,1.0);
#405=CARTESIAN_POINT('',(363.0,17.0000000000001,0.0));
#406=CARTESIAN_POINT('',(363.0,17.0000000000001,0.0));
#407=VECTOR('',#473,1.0);
#408=CARTESIAN_POINT('',(363.0,17.0000000000001,50.0));
#409=CARTESIAN_POINT('',(363.0,17.0000000000001,50.0));
#410=VECTOR('',#474,1.0);
#411=CARTESIAN_POINT('',(363.0,17.0000000000001,50.0));
#412=VECTOR('',#475,1.0);
#413=COLOUR_RGB('',0.509803950786591,0.509803950786591,0.588235318660736);
#414=CARTESIAN_POINT('',(0.0,37.0000000000002,0.0));
#415=CARTESIAN_POINT('',(0.0,37.0000000000002,50.0));
#416=VECTOR('',#476,1.0);
#417=CARTESIAN_POINT('',(0.0,17.0000000000001,0.0));
#418=VECTOR('',#477,1.0);
#419=COLOUR_RGB('',0.509803950786591,0.509803950786591,0.588235318660736);
#420=CARTESIAN_POINT('',(0.0,-16.9999999999999,0.0));
#421=CARTESIAN_POINT('',(0.0,-16.9999999999999,50.0));
#422=VECTOR('',#478,1.0);
#423=CARTESIAN_POINT('',(0.0,-37.0,0.0));
#424=CARTESIAN_POINT('',(0.0,-37.0,0.0));
#425=VECTOR('',#479,1.0);
#426=CARTESIAN_POINT('',(0.0,-37.0,50.0));
#427=VECTOR('',#480,1.0);
#428=COLOUR_RGB('',0.509803950786591,0.509803950786591,0.588235318660736);
#429=CARTESIAN_POINT('',(363.0,-16.9999999999999,50.0));
#430=CARTESIAN_POINT('',(0.0,-16.9999999999999,50.0));
#431=VECTOR('',#481,1.0);
#432=CARTESIAN_POINT('',(363.0,-16.9999999999999,0.0));
#433=CARTESIAN_POINT('',(363.0,-16.9999999999999,50.0));
#434=VECTOR('',#482,1.0);
#435=CARTESIAN_POINT('',(0.0,-16.9999999999999,0.0));
#436=VECTOR('',#483,1.0);
#437=COLOUR_RGB('',0.509803950786591,0.509803950786591,0.588235318660736);
#438=CARTESIAN_POINT('',(363.0,37.0,50.0));
#439=CARTESIAN_POINT('',(0.0,37.0000000000002,50.0));
#440=VECTOR('',#484,1.0);
#441=CARTESIAN_POINT('',(363.0,37.0,0.0));
#442=CARTESIAN_POINT('',(363.0,37.0,50.0));
#443=VECTOR('',#485,1.0);
#444=CARTESIAN_POINT('',(0.0,37.0000000000002,0.0));
#445=VECTOR('',#486,1.0);
#446=COLOUR_RGB('',0.509803950786591,0.509803950786591,0.588235318660736);
#447=AXIS2_PLACEMENT_3D('',#487,#488,#489);
#448=AXIS2_PLACEMENT_3D('',#490,#491,#492);
#449=COLOUR_RGB('',0.509803950786591,0.509803950786591,0.588235318660736);
#450=CARTESIAN_POINT('',(363.0,-37.0,0.0));
#451=CARTESIAN_POINT('',(363.0,-37.0,0.0));
#452=VECTOR('',#493,1.0);
#453=CARTESIAN_POINT('',(363.0,-37.0,50.0));
#454=CARTESIAN_POINT('',(363.0,-37.0,50.0));
#455=VECTOR('',#494,1.0);
#456=CARTESIAN_POINT('',(363.0,-37.0,50.0));
#457=VECTOR('',#495,1.0);
#458=COLOUR_RGB('',0.509803950786591,0.509803950786591,0.588235318660736);
#459=AXIS2_PLACEMENT_3D('',#496,#497,#498);
#460=AXIS2_PLACEMENT_3D('',#499,#500,#501);
#461=COLOUR_RGB('',0.509803950786591,0.509803950786591,0.588235318660736);
#462=COLOUR_RGB('',0.509803950786591,0.509803950786591,0.588235318660736);
#463=COLOUR_RGB('',0.509803950786591,0.509803950786591,0.588235318660736);
#464=DIRECTION('',(-0.707106781186548,0.0,-0.707106781186547));
#465=DIRECTION('',(-3.06151588455595E-016,-1.0,0.0));
#466=DIRECTION('',(0.707106781186548,0.0,0.707106781186547));
#467=DIRECTION('',(0.0,1.0,-3.06151588455594E-016));
#468=DIRECTION('',(0.707106781186548,0.0,0.707106781186547));
#469=DIRECTION('',(0.0,1.0,-3.06151588455594E-016));
#470=DIRECTION('',(-0.707106781186548,0.0,-0.707106781186547));
#471=DIRECTION('',(-3.06151588455595E-016,-1.0,0.0));
#472=DIRECTION('',(0.0,0.0,-1.0));
#473=DIRECTION('',(1.0,0.0,0.0));
#474=DIRECTION('',(0.0,0.0,-1.0));
#475=DIRECTION('',(-1.0,0.0,0.0));
#476=DIRECTION('',(0.0,0.0,-1.0));
#477=DIRECTION('',(0.0,-1.0,0.0));
#478=DIRECTION('',(0.0,0.0,-1.0));
#479=DIRECTION('',(0.0,-1.0,0.0));
#480=DIRECTION('',(0.0,0.0,-1.0));
#481=DIRECTION('',(1.0,0.0,0.0));
#482=DIRECTION('',(0.0,0.0,-1.0));
#483=DIRECTION('',(-1.0,0.0,0.0));
#484=DIRECTION('',(1.0,0.0,0.0));
#485=DIRECTION('',(0.0,0.0,-1.0));
#486=DIRECTION('',(-1.0,0.0,0.0));
#487=CARTESIAN_POINT('',(363.0,1.13686837721616E-013,0.0));
#488=DIRECTION('',(0.0,0.0,-1.0));
#489=DIRECTION('',(0.0,-1.0,0.0));
#490=CARTESIAN_POINT('',(363.0,1.13686837721616E-013,50.0));
#491=DIRECTION('',(0.0,0.0,1.0));
#492=DIRECTION('',(0.0,-1.0,0.0));
#493=DIRECTION('',(1.0,0.0,0.0));
#494=DIRECTION('',(0.0,0.0,-1.0));
#495=DIRECTION('',(-1.0,0.0,0.0));
#496=CARTESIAN_POINT('',(363.0,0.0,0.0));
#497=DIRECTION('',(0.0,-0.0,1.0));
#498=DIRECTION('',(0.0,1.0,0.0));
#499=CARTESIAN_POINT('',(363.0,0.0,50.0));
#500=DIRECTION('',(0.0,0.0,-1.0));
#501=DIRECTION('',(0.0,1.0,0.0));
ENDSEC;
END-ISO-10303-21;
