ISO-10303-21;
HEADER;
FILE_DESCRIPTION(('STEP AP214'),'1');
FILE_NAME('HALDERN_EH_23170_0022.stp','2017-08-10T07:29:52',('TraceParts'),('TraceParts S.A.'),'Spatial InterOp 3D',' ',' ');
FILE_SCHEMA(('automotive_design'));
ENDSEC;
DATA;
#1=MECHANICAL_DESIGN_GEOMETRIC_PRESENTATION_REPRESENTATION(' ',(#10,#11,#12,#13,#14,#15,#16,#17,#18,#19,#20,#21,#22,#23,#24,#25,#26),#6);
#2=PRODUCT_DEFINITION_CONTEXT('',#27,'design');
#3=APPLICATION_PROTOCOL_DEFINITION('INTERNATIONAL STANDARD','automotive_design',1994,#27);
#4=PRODUCT_CATEGORY_RELATIONSHIP('NONE','NONE',#28,#29);
#5=SHAPE_DEFINITION_REPRESENTATION(#30,#31);
#6= (GEOMETRIC_REPRESENTATION_CONTEXT(3)GLOBAL_UNCERTAINTY_ASSIGNED_CONTEXT((#34))GLOBAL_UNIT_ASSIGNED_CONTEXT((#36,#37,#38))REPRESENTATION_CONTEXT('NONE','WORKSPACE'));
#10=STYLED_ITEM('',(#40),#41);
#11=STYLED_ITEM('',(#42),#43);
#12=STYLED_ITEM('',(#44),#45);
#13=STYLED_ITEM('',(#46),#47);
#14=STYLED_ITEM('',(#48),#49);
#15=STYLED_ITEM('',(#50),#51);
#16=STYLED_ITEM('',(#52),#53);
#17=STYLED_ITEM('',(#54),#55);
#18=STYLED_ITEM('',(#56),#57);
#19=STYLED_ITEM('',(#58),#59);
#20=STYLED_ITEM('',(#60),#61);
#21=STYLED_ITEM('',(#62),#63);
#22=STYLED_ITEM('',(#64),#65);
#23=STYLED_ITEM('',(#66),#67);
#24=STYLED_ITEM('',(#68),#69);
#25=STYLED_ITEM('',(#70),#71);
#26=STYLED_ITEM('',(#72),#73);
#27=APPLICATION_CONTEXT(' ');
#28=PRODUCT_CATEGORY('part','NONE');
#29=PRODUCT_RELATED_PRODUCT_CATEGORY('detail',' ',(#74));
#30=PRODUCT_DEFINITION_SHAPE('NONE','NONE',#75);
#31=ADVANCED_BREP_SHAPE_REPRESENTATION('HALDERN_EH_23170_0022',(#76,#77),#6);
#34=UNCERTAINTY_MEASURE_WITH_UNIT(LENGTH_MEASURE(1.0E-006),#36,'','');
#36= (CONVERSION_BASED_UNIT('MILLIMETRE',#80)LENGTH_UNIT()NAMED_UNIT(#83));
#37= (NAMED_UNIT(#85)PLANE_ANGLE_UNIT()SI_UNIT($,.RADIAN.));
#38= (NAMED_UNIT(#85)SOLID_ANGLE_UNIT()SI_UNIT($,.STERADIAN.));
#40=PRESENTATION_STYLE_ASSIGNMENT((#91));
#41=ADVANCED_FACE('',(#92),#93,.F.);
#42=PRESENTATION_STYLE_ASSIGNMENT((#94));
#43=ADVANCED_FACE('',(#95),#96,.F.);
#44=PRESENTATION_STYLE_ASSIGNMENT((#97));
#45=ADVANCED_FACE('',(#98),#99,.F.);
#46=PRESENTATION_STYLE_ASSIGNMENT((#100));
#47=ADVANCED_FACE('',(#101,#102),#103,.T.);
#48=PRESENTATION_STYLE_ASSIGNMENT((#104));
#49=ADVANCED_FACE('',(#105),#106,.T.);
#50=PRESENTATION_STYLE_ASSIGNMENT((#107));
#51=ADVANCED_FACE('',(#108),#109,.F.);
#52=PRESENTATION_STYLE_ASSIGNMENT((#110));
#53=ADVANCED_FACE('',(#111),#112,.T.);
#54=PRESENTATION_STYLE_ASSIGNMENT((#113));
#55=ADVANCED_FACE('',(#114),#115,.F.);
#56=PRESENTATION_STYLE_ASSIGNMENT((#116));
#57=ADVANCED_FACE('',(#117),#118,.T.);
#58=PRESENTATION_STYLE_ASSIGNMENT((#119));
#59=ADVANCED_FACE('',(#120),#121,.T.);
#60=PRESENTATION_STYLE_ASSIGNMENT((#122));
#61=ADVANCED_FACE('',(#123),#124,.T.);
#62=PRESENTATION_STYLE_ASSIGNMENT((#125));
#63=ADVANCED_FACE('',(#126),#127,.T.);
#64=PRESENTATION_STYLE_ASSIGNMENT((#128));
#65=ADVANCED_FACE('',(#129),#130,.T.);
#66=PRESENTATION_STYLE_ASSIGNMENT((#131));
#67=ADVANCED_FACE('',(#132),#133,.T.);
#68=PRESENTATION_STYLE_ASSIGNMENT((#134));
#69=ADVANCED_FACE('',(#135),#136,.T.);
#70=PRESENTATION_STYLE_ASSIGNMENT((#137));
#71=ADVANCED_FACE('',(#138),#139,.T.);
#72=PRESENTATION_STYLE_ASSIGNMENT((#140));
#73=ADVANCED_FACE('',(#141,#142),#143,.F.);
#74=PRODUCT('HALDERN_EH_23170_0022','HALDERN_EH_23170_0022','PART-HALDERN_EH_23170_0022-DESC',(#144));
#75=PRODUCT_DEFINITION('NONE','NONE',#145,#2);
#76=MANIFOLD_SOLID_BREP('HALDERN_EH_23170_0022',#146);
#77=AXIS2_PLACEMENT_3D('',#147,#148,#149);
#80=LENGTH_MEASURE_WITH_UNIT(LENGTH_MEASURE(1.0),#150);
#83=DIMENSIONAL_EXPONENTS(1.0,0.0,0.0,0.0,0.0,0.0,0.0);
#85=DIMENSIONAL_EXPONENTS(0.0,0.0,0.0,0.0,0.0,0.0,0.0);
#91=SURFACE_STYLE_USAGE(.BOTH.,#151);
#92=FACE_OUTER_BOUND('',#152,.T.);
#93=CYLINDRICAL_SURFACE('',#153,11.0);
#94=SURFACE_STYLE_USAGE(.BOTH.,#154);
#95=FACE_OUTER_BOUND('',#155,.T.);
#96=CYLINDRICAL_SURFACE('',#156,11.0);
#97=SURFACE_STYLE_USAGE(.BOTH.,#157);
#98=FACE_OUTER_BOUND('',#158,.T.);
#99=PLANE('',#159);
#100=SURFACE_STYLE_USAGE(.BOTH.,#160);
#101=FACE_OUTER_BOUND('',#161,.T.);
#102=FACE_BOUND('',#162,.T.);
#103=PLANE('',#163);
#104=SURFACE_STYLE_USAGE(.BOTH.,#164);
#105=FACE_OUTER_BOUND('',#165,.T.);
#106=PLANE('',#166);
#107=SURFACE_STYLE_USAGE(.BOTH.,#167);
#108=FACE_OUTER_BOUND('',#168,.T.);
#109=CYLINDRICAL_SURFACE('',#169,11.0);
#110=SURFACE_STYLE_USAGE(.BOTH.,#170);
#111=FACE_OUTER_BOUND('',#171,.T.);
#112=PLANE('',#172);
#113=SURFACE_STYLE_USAGE(.BOTH.,#173);
#114=FACE_OUTER_BOUND('',#174,.T.);
#115=CYLINDRICAL_SURFACE('',#175,11.0);
#116=SURFACE_STYLE_USAGE(.BOTH.,#176);
#117=FACE_OUTER_BOUND('',#177,.T.);
#118=PLANE('',#178);
#119=SURFACE_STYLE_USAGE(.BOTH.,#179);
#120=FACE_OUTER_BOUND('',#180,.T.);
#121=PLANE('',#181);
#122=SURFACE_STYLE_USAGE(.BOTH.,#182);
#123=FACE_OUTER_BOUND('',#183,.T.);
#124=PLANE('',#184);
#125=SURFACE_STYLE_USAGE(.BOTH.,#185);
#126=FACE_OUTER_BOUND('',#186,.T.);
#127=PLANE('',#187);
#128=SURFACE_STYLE_USAGE(.BOTH.,#188);
#129=FACE_OUTER_BOUND('',#189,.T.);
#130=PLANE('',#190);
#131=SURFACE_STYLE_USAGE(.BOTH.,#191);
#132=FACE_OUTER_BOUND('',#192,.T.);
#133=PLANE('',#193);
#134=SURFACE_STYLE_USAGE(.BOTH.,#194);
#135=FACE_OUTER_BOUND('',#195,.T.);
#136=PLANE('',#196);
#137=SURFACE_STYLE_USAGE(.BOTH.,#197);
#138=FACE_OUTER_BOUND('',#198,.T.);
#139=PLANE('',#199);
#140=SURFACE_STYLE_USAGE(.BOTH.,#200);
#141=FACE_BOUND('',#201,.T.);
#142=FACE_OUTER_BOUND('',#202,.T.);
#143=PLANE('',#203);
#144=PRODUCT_CONTEXT('',#27,'mechanical');
#145=PRODUCT_DEFINITION_FORMATION_WITH_SPECIFIED_SOURCE(' ','NONE',#74,.NOT_KNOWN.);
#146=CLOSED_SHELL('',(#41,#43,#45,#47,#49,#51,#53,#55,#57,#59,#61,#63,#65,#67,#69,#71,#73));
#147=CARTESIAN_POINT('',(0.0,0.0,0.0));
#148=DIRECTION('',(0.0,0.0,1.0));
#149=DIRECTION('',(1.0,0.0,0.0));
#150= (NAMED_UNIT(#83)LENGTH_UNIT()SI_UNIT(.MILLI.,.METRE.));
#151=SURFACE_SIDE_STYLE('',(#205));
#152=EDGE_LOOP('',(#206,#207,#208,#209));
#153=AXIS2_PLACEMENT_3D('',#210,#211,#212);
#154=SURFACE_SIDE_STYLE('',(#213));
#155=EDGE_LOOP('',(#214,#215,#216,#217));
#156=AXIS2_PLACEMENT_3D('',#218,#219,#220);
#157=SURFACE_SIDE_STYLE('',(#221));
#158=EDGE_LOOP('',(#222,#223,#224,#225));
#159=AXIS2_PLACEMENT_3D('',#226,#227,#228);
#160=SURFACE_SIDE_STYLE('',(#229));
#161=EDGE_LOOP('',(#230,#231,#232,#233,#234,#235,#236,#237));
#162=EDGE_LOOP('',(#238,#239,#240,#241,#242,#243));
#163=AXIS2_PLACEMENT_3D('',#244,#245,#246);
#164=SURFACE_SIDE_STYLE('',(#247));
#165=EDGE_LOOP('',(#248,#249,#250,#251,#252));
#166=AXIS2_PLACEMENT_3D('',#253,#254,#255);
#167=SURFACE_SIDE_STYLE('',(#256));
#168=EDGE_LOOP('',(#257,#258,#259,#260));
#169=AXIS2_PLACEMENT_3D('',#261,#262,#263);
#170=SURFACE_SIDE_STYLE('',(#264));
#171=EDGE_LOOP('',(#265,#266,#267,#268));
#172=AXIS2_PLACEMENT_3D('',#269,#270,#271);
#173=SURFACE_SIDE_STYLE('',(#272));
#174=EDGE_LOOP('',(#273,#274,#275,#276));
#175=AXIS2_PLACEMENT_3D('',#277,#278,#279);
#176=SURFACE_SIDE_STYLE('',(#280));
#177=EDGE_LOOP('',(#281,#282,#283,#284));
#178=AXIS2_PLACEMENT_3D('',#285,#286,#287);
#179=SURFACE_SIDE_STYLE('',(#288));
#180=EDGE_LOOP('',(#289,#290,#291,#292));
#181=AXIS2_PLACEMENT_3D('',#293,#294,#295);
#182=SURFACE_SIDE_STYLE('',(#296));
#183=EDGE_LOOP('',(#297,#298,#299,#300));
#184=AXIS2_PLACEMENT_3D('',#301,#302,#303);
#185=SURFACE_SIDE_STYLE('',(#304));
#186=EDGE_LOOP('',(#305,#306,#307,#308));
#187=AXIS2_PLACEMENT_3D('',#309,#310,#311);
#188=SURFACE_SIDE_STYLE('',(#312));
#189=EDGE_LOOP('',(#313,#314,#315,#316,#317));
#190=AXIS2_PLACEMENT_3D('',#318,#319,#320);
#191=SURFACE_SIDE_STYLE('',(#321));
#192=EDGE_LOOP('',(#322,#323,#324,#325));
#193=AXIS2_PLACEMENT_3D('',#326,#327,#328);
#194=SURFACE_SIDE_STYLE('',(#329));
#195=EDGE_LOOP('',(#330,#331,#332,#333));
#196=AXIS2_PLACEMENT_3D('',#334,#335,#336);
#197=SURFACE_SIDE_STYLE('',(#337));
#198=EDGE_LOOP('',(#338,#339,#340,#341));
#199=AXIS2_PLACEMENT_3D('',#342,#343,#344);
#200=SURFACE_SIDE_STYLE('',(#345));
#201=EDGE_LOOP('',(#346,#347,#348,#349,#350,#351));
#202=EDGE_LOOP('',(#352,#353,#354,#355,#356,#357,#358,#359));
#203=AXIS2_PLACEMENT_3D('',#360,#361,#362);
#205=SURFACE_STYLE_FILL_AREA(#363);
#206=ORIENTED_EDGE('',*,*,#364,.F.);
#207=ORIENTED_EDGE('',*,*,#365,.F.);
#208=ORIENTED_EDGE('',*,*,#366,.T.);
#209=ORIENTED_EDGE('',*,*,#367,.F.);
#210=CARTESIAN_POINT('',(138.0,0.0,20.0));
#211=DIRECTION('',(0.0,0.0,1.0));
#212=DIRECTION('',(1.0,0.0,0.0));
#213=SURFACE_STYLE_FILL_AREA(#368);
#214=ORIENTED_EDGE('',*,*,#369,.F.);
#215=ORIENTED_EDGE('',*,*,#370,.F.);
#216=ORIENTED_EDGE('',*,*,#371,.F.);
#217=ORIENTED_EDGE('',*,*,#372,.F.);
#218=CARTESIAN_POINT('',(0.0,0.0,20.0));
#219=DIRECTION('',(0.0,0.0,1.0));
#220=DIRECTION('',(1.0,0.0,0.0));
#221=SURFACE_STYLE_FILL_AREA(#373);
#222=ORIENTED_EDGE('',*,*,#374,.F.);
#223=ORIENTED_EDGE('',*,*,#375,.F.);
#224=ORIENTED_EDGE('',*,*,#376,.F.);
#225=ORIENTED_EDGE('',*,*,#377,.F.);
#226=CARTESIAN_POINT('',(-64.0,-18.5,25.0));
#227=DIRECTION('',(0.707106781186548,-4.32963728535968E-017,-0.707106781186547));
#228=DIRECTION('',(-0.707106781186547,-4.32963728535968E-017,-0.707106781186548));
#229=SURFACE_STYLE_FILL_AREA(#378);
#230=ORIENTED_EDGE('',*,*,#377,.T.);
#231=ORIENTED_EDGE('',*,*,#379,.F.);
#232=ORIENTED_EDGE('',*,*,#380,.F.);
#233=ORIENTED_EDGE('',*,*,#381,.F.);
#234=ORIENTED_EDGE('',*,*,#382,.F.);
#235=ORIENTED_EDGE('',*,*,#383,.F.);
#236=ORIENTED_EDGE('',*,*,#384,.F.);
#237=ORIENTED_EDGE('',*,*,#385,.F.);
#238=ORIENTED_EDGE('',*,*,#365,.T.);
#239=ORIENTED_EDGE('',*,*,#386,.T.);
#240=ORIENTED_EDGE('',*,*,#387,.T.);
#241=ORIENTED_EDGE('',*,*,#388,.T.);
#242=ORIENTED_EDGE('',*,*,#372,.T.);
#243=ORIENTED_EDGE('',*,*,#389,.T.);
#244=CARTESIAN_POINT('',(49.9006738555306,-3.5527136788005E-015,40.0));
#245=DIRECTION('',(0.0,0.0,1.0));
#246=DIRECTION('',(1.0,0.0,0.0));
#247=SURFACE_STYLE_FILL_AREA(#390);
#248=ORIENTED_EDGE('',*,*,#376,.T.);
#249=ORIENTED_EDGE('',*,*,#391,.F.);
#250=ORIENTED_EDGE('',*,*,#392,.T.);
#251=ORIENTED_EDGE('',*,*,#393,.T.);
#252=ORIENTED_EDGE('',*,*,#379,.T.);
#253=CARTESIAN_POINT('',(-56.5,-17.5,0.0));
#254=DIRECTION('',(0.0,-1.0,0.0));
#255=DIRECTION('',(1.0,0.0,0.0));
#256=SURFACE_STYLE_FILL_AREA(#394);
#257=ORIENTED_EDGE('',*,*,#369,.T.);
#258=ORIENTED_EDGE('',*,*,#388,.F.);
#259=ORIENTED_EDGE('',*,*,#395,.F.);
#260=ORIENTED_EDGE('',*,*,#396,.F.);
#261=CARTESIAN_POINT('',(0.0,0.0,20.0));
#262=DIRECTION('',(0.0,0.0,1.0));
#263=DIRECTION('',(1.0,0.0,0.0));
#264=SURFACE_STYLE_FILL_AREA(#397);
#265=ORIENTED_EDGE('',*,*,#389,.F.);
#266=ORIENTED_EDGE('',*,*,#371,.T.);
#267=ORIENTED_EDGE('',*,*,#398,.F.);
#268=ORIENTED_EDGE('',*,*,#366,.F.);
#269=CARTESIAN_POINT('',(69.0,11.0,20.0));
#270=DIRECTION('',(0.0,-1.0,0.0));
#271=DIRECTION('',(0.0,0.0,-1.0));
#272=SURFACE_STYLE_FILL_AREA(#399);
#273=ORIENTED_EDGE('',*,*,#364,.T.);
#274=ORIENTED_EDGE('',*,*,#400,.F.);
#275=ORIENTED_EDGE('',*,*,#401,.F.);
#276=ORIENTED_EDGE('',*,*,#386,.F.);
#277=CARTESIAN_POINT('',(138.0,0.0,20.0));
#278=DIRECTION('',(0.0,0.0,1.0));
#279=DIRECTION('',(1.0,0.0,0.0));
#280=SURFACE_STYLE_FILL_AREA(#402);
#281=ORIENTED_EDGE('',*,*,#387,.F.);
#282=ORIENTED_EDGE('',*,*,#401,.T.);
#283=ORIENTED_EDGE('',*,*,#403,.F.);
#284=ORIENTED_EDGE('',*,*,#395,.T.);
#285=CARTESIAN_POINT('',(69.0,-11.0,20.0));
#286=DIRECTION('',(0.0,1.0,0.0));
#287=DIRECTION('',(0.0,0.0,1.0));
#288=SURFACE_STYLE_FILL_AREA(#404);
#289=ORIENTED_EDGE('',*,*,#381,.T.);
#290=ORIENTED_EDGE('',*,*,#405,.F.);
#291=ORIENTED_EDGE('',*,*,#406,.T.);
#292=ORIENTED_EDGE('',*,*,#407,.T.);
#293=CARTESIAN_POINT('',(74.75,-30.0,0.0));
#294=DIRECTION('',(0.0,-1.0,0.0));
#295=DIRECTION('',(1.0,0.0,0.0));
#296=SURFACE_STYLE_FILL_AREA(#408);
#297=ORIENTED_EDGE('',*,*,#380,.T.);
#298=ORIENTED_EDGE('',*,*,#393,.F.);
#299=ORIENTED_EDGE('',*,*,#409,.T.);
#300=ORIENTED_EDGE('',*,*,#405,.T.);
#301=CARTESIAN_POINT('',(-27.75,-23.75,0.0));
#302=DIRECTION('',(-0.707106781186547,-0.707106781186547,0.0));
#303=DIRECTION('',(0.707106781186548,-0.707106781186548,0.0));
#304=SURFACE_STYLE_FILL_AREA(#410);
#305=ORIENTED_EDGE('',*,*,#375,.T.);
#306=ORIENTED_EDGE('',*,*,#411,.F.);
#307=ORIENTED_EDGE('',*,*,#412,.F.);
#308=ORIENTED_EDGE('',*,*,#391,.T.);
#309=CARTESIAN_POINT('',(-79.0,0.0,0.0));
#310=DIRECTION('',(-1.0,6.12303176911189E-017,0.0));
#311=DIRECTION('',(-6.12303176911189E-017,-1.0,-0.0));
#312=SURFACE_STYLE_FILL_AREA(#413);
#313=ORIENTED_EDGE('',*,*,#374,.T.);
#314=ORIENTED_EDGE('',*,*,#385,.T.);
#315=ORIENTED_EDGE('',*,*,#414,.F.);
#316=ORIENTED_EDGE('',*,*,#415,.F.);
#317=ORIENTED_EDGE('',*,*,#411,.T.);
#318=CARTESIAN_POINT('',(-56.5,17.5,0.0));
#319=DIRECTION('',(0.0,1.0,0.0));
#320=DIRECTION('',(-1.0,0.0,0.0));
#321=SURFACE_STYLE_FILL_AREA(#416);
#322=ORIENTED_EDGE('',*,*,#384,.T.);
#323=ORIENTED_EDGE('',*,*,#417,.F.);
#324=ORIENTED_EDGE('',*,*,#418,.F.);
#325=ORIENTED_EDGE('',*,*,#414,.T.);
#326=CARTESIAN_POINT('',(-27.75,23.75,0.0));
#327=DIRECTION('',(-0.707106781186548,0.707106781186547,0.0));
#328=DIRECTION('',(-0.707106781186547,-0.707106781186548,-0.0));
#329=SURFACE_STYLE_FILL_AREA(#419);
#330=ORIENTED_EDGE('',*,*,#383,.T.);
#331=ORIENTED_EDGE('',*,*,#420,.F.);
#332=ORIENTED_EDGE('',*,*,#421,.T.);
#333=ORIENTED_EDGE('',*,*,#417,.T.);
#334=CARTESIAN_POINT('',(74.75,30.0,0.0));
#335=DIRECTION('',(1.1073393284573E-016,1.0,0.0));
#336=DIRECTION('',(-1.0,1.1073393284573E-016,0.0));
#337=SURFACE_STYLE_FILL_AREA(#422);
#338=ORIENTED_EDGE('',*,*,#382,.T.);
#339=ORIENTED_EDGE('',*,*,#407,.F.);
#340=ORIENTED_EDGE('',*,*,#423,.T.);
#341=ORIENTED_EDGE('',*,*,#420,.T.);
#342=CARTESIAN_POINT('',(171.0,0.0,0.0));
#343=DIRECTION('',(1.0,0.0,0.0));
#344=DIRECTION('',(0.0,1.0,0.0));
#345=SURFACE_STYLE_FILL_AREA(#424);
#346=ORIENTED_EDGE('',*,*,#400,.T.);
#347=ORIENTED_EDGE('',*,*,#367,.T.);
#348=ORIENTED_EDGE('',*,*,#398,.T.);
#349=ORIENTED_EDGE('',*,*,#370,.T.);
#350=ORIENTED_EDGE('',*,*,#396,.T.);
#351=ORIENTED_EDGE('',*,*,#403,.T.);
#352=ORIENTED_EDGE('',*,*,#423,.F.);
#353=ORIENTED_EDGE('',*,*,#406,.F.);
#354=ORIENTED_EDGE('',*,*,#409,.F.);
#355=ORIENTED_EDGE('',*,*,#392,.F.);
#356=ORIENTED_EDGE('',*,*,#412,.T.);
#357=ORIENTED_EDGE('',*,*,#415,.T.);
#358=ORIENTED_EDGE('',*,*,#418,.T.);
#359=ORIENTED_EDGE('',*,*,#421,.F.);
#360=CARTESIAN_POINT('',(49.9006738555306,-3.5527136788005E-015,0.0));
#361=DIRECTION('',(0.0,0.0,1.0));
#362=DIRECTION('',(1.0,0.0,0.0));
#363=FILL_AREA_STYLE('',(#425));
#364=EDGE_CURVE('',#426,#427,#428,.T.);
#365=EDGE_CURVE('',#429,#426,#430,.T.);
#366=EDGE_CURVE('',#429,#431,#432,.T.);
#367=EDGE_CURVE('',#427,#431,#433,.T.);
#368=FILL_AREA_STYLE('',(#434));
#369=EDGE_CURVE('',#435,#436,#437,.T.);
#370=EDGE_CURVE('',#438,#435,#439,.T.);
#371=EDGE_CURVE('',#440,#438,#441,.T.);
#372=EDGE_CURVE('',#436,#440,#442,.T.);
#373=FILL_AREA_STYLE('',(#443));
#374=EDGE_CURVE('',#444,#445,#446,.T.);
#375=EDGE_CURVE('',#447,#444,#448,.T.);
#376=EDGE_CURVE('',#449,#447,#450,.T.);
#377=EDGE_CURVE('',#445,#449,#451,.T.);
#378=FILL_AREA_STYLE('',(#452));
#379=EDGE_CURVE('',#453,#449,#454,.T.);
#380=EDGE_CURVE('',#455,#453,#456,.T.);
#381=EDGE_CURVE('',#457,#455,#458,.T.);
#382=EDGE_CURVE('',#459,#457,#460,.T.);
#383=EDGE_CURVE('',#461,#459,#462,.T.);
#384=EDGE_CURVE('',#463,#461,#464,.T.);
#385=EDGE_CURVE('',#445,#463,#465,.T.);
#386=EDGE_CURVE('',#426,#466,#467,.T.);
#387=EDGE_CURVE('',#466,#468,#469,.T.);
#388=EDGE_CURVE('',#468,#436,#470,.T.);
#389=EDGE_CURVE('',#440,#429,#471,.T.);
#390=FILL_AREA_STYLE('',(#472));
#391=EDGE_CURVE('',#473,#447,#474,.T.);
#392=EDGE_CURVE('',#473,#475,#476,.T.);
#393=EDGE_CURVE('',#475,#453,#477,.T.);
#394=FILL_AREA_STYLE('',(#478));
#395=EDGE_CURVE('',#479,#468,#480,.T.);
#396=EDGE_CURVE('',#435,#479,#481,.T.);
#397=FILL_AREA_STYLE('',(#482));
#398=EDGE_CURVE('',#431,#438,#483,.T.);
#399=FILL_AREA_STYLE('',(#484));
#400=EDGE_CURVE('',#485,#427,#486,.T.);
#401=EDGE_CURVE('',#466,#485,#487,.T.);
#402=FILL_AREA_STYLE('',(#488));
#403=EDGE_CURVE('',#479,#485,#489,.T.);
#404=FILL_AREA_STYLE('',(#490));
#405=EDGE_CURVE('',#491,#455,#492,.T.);
#406=EDGE_CURVE('',#491,#493,#494,.T.);
#407=EDGE_CURVE('',#493,#457,#495,.T.);
#408=FILL_AREA_STYLE('',(#496));
#409=EDGE_CURVE('',#475,#491,#497,.T.);
#410=FILL_AREA_STYLE('',(#498));
#411=EDGE_CURVE('',#499,#444,#500,.T.);
#412=EDGE_CURVE('',#473,#499,#501,.T.);
#413=FILL_AREA_STYLE('',(#502));
#414=EDGE_CURVE('',#503,#463,#504,.T.);
#415=EDGE_CURVE('',#499,#503,#505,.T.);
#416=FILL_AREA_STYLE('',(#506));
#417=EDGE_CURVE('',#507,#461,#508,.T.);
#418=EDGE_CURVE('',#503,#507,#509,.T.);
#419=FILL_AREA_STYLE('',(#510));
#420=EDGE_CURVE('',#511,#459,#512,.T.);
#421=EDGE_CURVE('',#511,#507,#513,.T.);
#422=FILL_AREA_STYLE('',(#514));
#423=EDGE_CURVE('',#493,#511,#515,.T.);
#424=FILL_AREA_STYLE('',(#516));
#425=FILL_AREA_STYLE_COLOUR('',#517);
#426=VERTEX_POINT('',#518);
#427=VERTEX_POINT('',#519);
#428=LINE('',#520,#521);
#429=VERTEX_POINT('',#522);
#430=CIRCLE('',#523,11.0);
#431=VERTEX_POINT('',#524);
#432=LINE('',#525,#526);
#433=CIRCLE('',#527,11.0);
#434=FILL_AREA_STYLE_COLOUR('',#528);
#435=VERTEX_POINT('',#529);
#436=VERTEX_POINT('',#530);
#437=LINE('',#531,#532);
#438=VERTEX_POINT('',#533);
#439=CIRCLE('',#534,11.0);
#440=VERTEX_POINT('',#535);
#441=LINE('',#536,#537);
#442=CIRCLE('',#538,11.0);
#443=FILL_AREA_STYLE_COLOUR('',#539);
#444=VERTEX_POINT('',#540);
#445=VERTEX_POINT('',#541);
#446=LINE('',#542,#543);
#447=VERTEX_POINT('',#544);
#448=LINE('',#545,#546);
#449=VERTEX_POINT('',#547);
#450=LINE('',#548,#549);
#451=LINE('',#550,#551);
#452=FILL_AREA_STYLE_COLOUR('',#552);
#453=VERTEX_POINT('',#553);
#454=LINE('',#554,#555);
#455=VERTEX_POINT('',#556);
#456=LINE('',#557,#558);
#457=VERTEX_POINT('',#559);
#458=LINE('',#560,#561);
#459=VERTEX_POINT('',#562);
#460=LINE('',#563,#564);
#461=VERTEX_POINT('',#565);
#462=LINE('',#566,#567);
#463=VERTEX_POINT('',#568);
#464=LINE('',#569,#570);
#465=LINE('',#571,#572);
#466=VERTEX_POINT('',#573);
#467=CIRCLE('',#574,11.0);
#468=VERTEX_POINT('',#575);
#469=LINE('',#576,#577);
#470=CIRCLE('',#578,11.0);
#471=LINE('',#579,#580);
#472=FILL_AREA_STYLE_COLOUR('',#581);
#473=VERTEX_POINT('',#582);
#474=LINE('',#583,#584);
#475=VERTEX_POINT('',#585);
#476=LINE('',#586,#587);
#477=LINE('',#588,#589);
#478=FILL_AREA_STYLE_COLOUR('',#590);
#479=VERTEX_POINT('',#591);
#480=LINE('',#592,#593);
#481=CIRCLE('',#594,11.0);
#482=FILL_AREA_STYLE_COLOUR('',#595);
#483=LINE('',#596,#597);
#484=FILL_AREA_STYLE_COLOUR('',#598);
#485=VERTEX_POINT('',#599);
#486=CIRCLE('',#600,11.0);
#487=LINE('',#601,#602);
#488=FILL_AREA_STYLE_COLOUR('',#603);
#489=LINE('',#604,#605);
#490=FILL_AREA_STYLE_COLOUR('',#606);
#491=VERTEX_POINT('',#607);
#492=LINE('',#608,#609);
#493=VERTEX_POINT('',#610);
#494=LINE('',#611,#612);
#495=LINE('',#613,#614);
#496=FILL_AREA_STYLE_COLOUR('',#615);
#497=LINE('',#616,#617);
#498=FILL_AREA_STYLE_COLOUR('',#618);
#499=VERTEX_POINT('',#619);
#500=LINE('',#620,#621);
#501=LINE('',#622,#623);
#502=FILL_AREA_STYLE_COLOUR('',#624);
#503=VERTEX_POINT('',#625);
#504=LINE('',#626,#627);
#505=LINE('',#628,#629);
#506=FILL_AREA_STYLE_COLOUR('',#630);
#507=VERTEX_POINT('',#631);
#508=LINE('',#632,#633);
#509=LINE('',#634,#635);
#510=FILL_AREA_STYLE_COLOUR('',#636);
#511=VERTEX_POINT('',#637);
#512=LINE('',#638,#639);
#513=LINE('',#640,#641);
#514=FILL_AREA_STYLE_COLOUR('',#642);
#515=LINE('',#643,#644);
#516=FILL_AREA_STYLE_COLOUR('',#645);
#517=COLOUR_RGB('',0.752941191196442,0.752941191196442,0.752941191196442);
#518=CARTESIAN_POINT('',(149.0,-1.34706698920462E-015,40.0));
#519=CARTESIAN_POINT('',(149.0,-1.34706698920462E-015,0.0));
#520=CARTESIAN_POINT('',(149.0,-1.34706698920462E-015,20.0));
#521=VECTOR('',#646,1.0);
#522=CARTESIAN_POINT('',(138.0,11.0,40.0));
#523=AXIS2_PLACEMENT_3D('',#647,#648,#649);
#524=CARTESIAN_POINT('',(138.0,11.0,0.0));
#525=CARTESIAN_POINT('',(138.0,11.0,20.0));
#526=VECTOR('',#650,1.0);
#527=AXIS2_PLACEMENT_3D('',#651,#652,#653);
#528=COLOUR_RGB('',0.752941191196442,0.752941191196442,0.752941191196442);
#529=CARTESIAN_POINT('',(-11.0,1.34706698920462E-015,0.0));
#530=CARTESIAN_POINT('',(-11.0,1.34706698920462E-015,40.0));
#531=CARTESIAN_POINT('',(-11.0,1.34706698920462E-015,20.0));
#532=VECTOR('',#654,1.0);
#533=CARTESIAN_POINT('',(0.0,11.0,0.0));
#534=AXIS2_PLACEMENT_3D('',#655,#656,#657);
#535=CARTESIAN_POINT('',(0.0,11.0,40.0));
#536=CARTESIAN_POINT('',(0.0,11.0,20.0));
#537=VECTOR('',#658,1.0);
#538=AXIS2_PLACEMENT_3D('',#659,#660,#661);
#539=COLOUR_RGB('',0.752941191196442,0.752941191196442,0.752941191196442);
#540=CARTESIAN_POINT('',(-79.0,17.5,10.0));
#541=CARTESIAN_POINT('',(-49.0,17.5,40.0));
#542=CARTESIAN_POINT('',(-68.375,17.5,20.625));
#543=VECTOR('',#662,1.0);
#544=CARTESIAN_POINT('',(-79.0,-17.5,10.0));
#545=CARTESIAN_POINT('',(-79.0,-9.25,10.0));
#546=VECTOR('',#663,1.0);
#547=CARTESIAN_POINT('',(-49.0,-17.5,40.0));
#548=CARTESIAN_POINT('',(-68.375,-17.5,20.625));
#549=VECTOR('',#664,1.0);
#550=CARTESIAN_POINT('',(-49.0,-9.25,40.0));
#551=VECTOR('',#665,1.0);
#552=COLOUR_RGB('',0.752941191196442,0.752941191196442,0.752941191196442);
#553=CARTESIAN_POINT('',(-34.0,-17.5,40.0));
#554=CARTESIAN_POINT('',(-79.0,-17.5,40.0));
#555=VECTOR('',#666,1.0);
#556=CARTESIAN_POINT('',(-21.5,-30.0,40.0));
#557=CARTESIAN_POINT('',(-34.0,-17.5,40.0));
#558=VECTOR('',#667,0.999999999999999);
#559=CARTESIAN_POINT('',(171.0,-30.0,40.0));
#560=CARTESIAN_POINT('',(-21.5,-30.0,40.0));
#561=VECTOR('',#668,1.0);
#562=CARTESIAN_POINT('',(171.0,30.0,40.0));
#563=CARTESIAN_POINT('',(171.0,-30.0,40.0));
#564=VECTOR('',#669,1.0);
#565=CARTESIAN_POINT('',(-21.5,30.0,40.0));
#566=CARTESIAN_POINT('',(171.0,30.0,40.0));
#567=VECTOR('',#670,1.0);
#568=CARTESIAN_POINT('',(-34.0,17.5,40.0));
#569=CARTESIAN_POINT('',(-34.0,17.5,40.0));
#570=VECTOR('',#671,1.0);
#571=CARTESIAN_POINT('',(-79.0,17.5,40.0));
#572=VECTOR('',#672,1.0);
#573=CARTESIAN_POINT('',(138.0,-11.0,40.0));
#574=AXIS2_PLACEMENT_3D('',#673,#674,#675);
#575=CARTESIAN_POINT('',(0.0,-11.0,40.0));
#576=CARTESIAN_POINT('',(59.4503369277653,-11.0,40.0));
#577=VECTOR('',#676,1.0);
#578=AXIS2_PLACEMENT_3D('',#677,#678,#679);
#579=CARTESIAN_POINT('',(59.4503369277653,11.0,40.0));
#580=VECTOR('',#680,1.0);
#581=COLOUR_RGB('',0.752941191196442,0.752941191196442,0.752941191196442);
#582=CARTESIAN_POINT('',(-79.0,-17.5,0.0));
#583=CARTESIAN_POINT('',(-79.0,-17.5,0.0));
#584=VECTOR('',#681,1.0);
#585=CARTESIAN_POINT('',(-34.0,-17.5,0.0));
#586=CARTESIAN_POINT('',(-79.0,-17.5,0.0));
#587=VECTOR('',#682,1.0);
#588=CARTESIAN_POINT('',(-34.0,-17.5,0.0));
#589=VECTOR('',#683,1.0);
#590=COLOUR_RGB('',0.752941191196442,0.752941191196442,0.752941191196442);
#591=CARTESIAN_POINT('',(0.0,-11.0,0.0));
#592=CARTESIAN_POINT('',(0.0,-11.0,20.0));
#593=VECTOR('',#684,1.0);
#594=AXIS2_PLACEMENT_3D('',#685,#686,#687);
#595=COLOUR_RGB('',0.752941191196442,0.752941191196442,0.752941191196442);
#596=CARTESIAN_POINT('',(59.4503369277653,11.0,0.0));
#597=VECTOR('',#688,1.0);
#598=COLOUR_RGB('',0.752941191196442,0.752941191196442,0.752941191196442);
#599=CARTESIAN_POINT('',(138.0,-11.0,0.0));
#600=AXIS2_PLACEMENT_3D('',#689,#690,#691);
#601=CARTESIAN_POINT('',(138.0,-11.0,20.0));
#602=VECTOR('',#692,1.0);
#603=COLOUR_RGB('',0.752941191196442,0.752941191196442,0.752941191196442);
#604=CARTESIAN_POINT('',(59.4503369277653,-11.0,0.0));
#605=VECTOR('',#693,1.0);
#606=COLOUR_RGB('',0.752941191196442,0.752941191196442,0.752941191196442);
#607=CARTESIAN_POINT('',(-21.5,-30.0,0.0));
#608=CARTESIAN_POINT('',(-21.5,-30.0,0.0));
#609=VECTOR('',#694,1.0);
#610=CARTESIAN_POINT('',(171.0,-30.0,0.0));
#611=CARTESIAN_POINT('',(-21.5,-30.0,0.0));
#612=VECTOR('',#695,1.0);
#613=CARTESIAN_POINT('',(171.0,-30.0,0.0));
#614=VECTOR('',#696,1.0);
#615=COLOUR_RGB('',0.752941191196442,0.752941191196442,0.752941191196442);
#616=CARTESIAN_POINT('',(-34.0,-17.5,0.0));
#617=VECTOR('',#697,1.0);
#618=COLOUR_RGB('',0.752941191196442,0.752941191196442,0.752941191196442);
#619=CARTESIAN_POINT('',(-79.0,17.5,0.0));
#620=CARTESIAN_POINT('',(-79.0,17.5,0.0));
#621=VECTOR('',#698,1.0);
#622=CARTESIAN_POINT('',(-79.0,-17.5,0.0));
#623=VECTOR('',#699,1.0);
#624=COLOUR_RGB('',0.752941191196442,0.752941191196442,0.752941191196442);
#625=CARTESIAN_POINT('',(-34.0,17.5,0.0));
#626=CARTESIAN_POINT('',(-34.0,17.5,0.0));
#627=VECTOR('',#700,1.0);
#628=CARTESIAN_POINT('',(-79.0,17.5,0.0));
#629=VECTOR('',#701,1.0);
#630=COLOUR_RGB('',0.752941191196442,0.752941191196442,0.752941191196442);
#631=CARTESIAN_POINT('',(-21.5,30.0,0.0));
#632=CARTESIAN_POINT('',(-21.5,30.0,0.0));
#633=VECTOR('',#702,1.0);
#634=CARTESIAN_POINT('',(-34.0,17.5,0.0));
#635=VECTOR('',#703,1.0);
#636=COLOUR_RGB('',0.752941191196442,0.752941191196442,0.752941191196442);
#637=CARTESIAN_POINT('',(171.0,30.0,0.0));
#638=CARTESIAN_POINT('',(171.0,30.0,0.0));
#639=VECTOR('',#704,1.0);
#640=CARTESIAN_POINT('',(171.0,30.0,0.0));
#641=VECTOR('',#705,1.0);
#642=COLOUR_RGB('',0.752941191196442,0.752941191196442,0.752941191196442);
#643=CARTESIAN_POINT('',(171.0,-30.0,0.0));
#644=VECTOR('',#706,1.0);
#645=COLOUR_RGB('',0.752941191196442,0.752941191196442,0.752941191196442);
#646=DIRECTION('',(-0.0,0.0,-1.0));
#647=CARTESIAN_POINT('',(138.0,0.0,40.0));
#648=DIRECTION('',(0.0,0.0,-1.0));
#649=DIRECTION('',(1.0,0.0,0.0));
#650=DIRECTION('',(0.0,0.0,-1.0));
#651=CARTESIAN_POINT('',(138.0,0.0,0.0));
#652=DIRECTION('',(0.0,0.0,1.0));
#653=DIRECTION('',(1.0,0.0,0.0));
#654=DIRECTION('',(-0.0,0.0,1.0));
#655=CARTESIAN_POINT('',(0.0,0.0,0.0));
#656=DIRECTION('',(0.0,0.0,1.0));
#657=DIRECTION('',(1.0,0.0,0.0));
#658=DIRECTION('',(-0.0,-0.0,-1.0));
#659=CARTESIAN_POINT('',(0.0,0.0,40.0));
#660=DIRECTION('',(0.0,0.0,-1.0));
#661=DIRECTION('',(1.0,0.0,0.0));
#662=DIRECTION('',(0.707106781186547,0.0,0.707106781186548));
#663=DIRECTION('',(6.12303176911189E-017,1.0,-6.12303176911189E-017));
#664=DIRECTION('',(-0.707106781186547,-0.0,-0.707106781186548));
#665=DIRECTION('',(0.0,-1.0,0.0));
#666=DIRECTION('',(-1.0,-0.0,-0.0));
#667=DIRECTION('',(-0.707106781186548,0.707106781186548,0.0));
#668=DIRECTION('',(-1.0,-0.0,-0.0));
#669=DIRECTION('',(-0.0,-1.0,-0.0));
#670=DIRECTION('',(1.0,-1.1073393284573E-016,0.0));
#671=DIRECTION('',(0.707106781186547,0.707106781186548,0.0));
#672=DIRECTION('',(1.0,0.0,0.0));
#673=CARTESIAN_POINT('',(138.0,0.0,40.0));
#674=DIRECTION('',(0.0,0.0,-1.0));
#675=DIRECTION('',(1.0,0.0,0.0));
#676=DIRECTION('',(-1.0,0.0,0.0));
#677=CARTESIAN_POINT('',(0.0,0.0,40.0));
#678=DIRECTION('',(0.0,0.0,-1.0));
#679=DIRECTION('',(1.0,0.0,0.0));
#680=DIRECTION('',(1.0,0.0,0.0));
#681=DIRECTION('',(0.0,0.0,1.0));
#682=DIRECTION('',(1.0,0.0,0.0));
#683=DIRECTION('',(0.0,0.0,1.0));
#684=DIRECTION('',(0.0,0.0,1.0));
#685=CARTESIAN_POINT('',(0.0,0.0,0.0));
#686=DIRECTION('',(0.0,0.0,1.0));
#687=DIRECTION('',(1.0,0.0,0.0));
#688=DIRECTION('',(-1.0,0.0,0.0));
#689=CARTESIAN_POINT('',(138.0,0.0,0.0));
#690=DIRECTION('',(0.0,0.0,1.0));
#691=DIRECTION('',(1.0,0.0,0.0));
#692=DIRECTION('',(0.0,0.0,-1.0));
#693=DIRECTION('',(1.0,0.0,0.0));
#694=DIRECTION('',(0.0,0.0,1.0));
#695=DIRECTION('',(1.0,0.0,0.0));
#696=DIRECTION('',(0.0,0.0,1.0));
#697=DIRECTION('',(0.707106781186548,-0.707106781186548,0.0));
#698=DIRECTION('',(0.0,0.0,1.0));
#699=DIRECTION('',(6.12303176911189E-017,1.0,0.0));
#700=DIRECTION('',(0.0,0.0,1.0));
#701=DIRECTION('',(1.0,0.0,0.0));
#702=DIRECTION('',(0.0,0.0,1.0));
#703=DIRECTION('',(0.707106781186547,0.707106781186548,0.0));
#704=DIRECTION('',(0.0,0.0,1.0));
#705=DIRECTION('',(-1.0,1.1073393284573E-016,0.0));
#706=DIRECTION('',(0.0,1.0,0.0));
ENDSEC;
END-ISO-10303-21;
