ISO-10303-21;
HEADER;
FILE_DESCRIPTION(('STEP AP214'),'1');
FILE_NAME('HALDERN_EH_23180_0226.stp','2017-08-10T07:38:44',('TraceParts'),('TraceParts S.A.'),'Spatial InterOp 3D',' ',' ');
FILE_SCHEMA(('automotive_design'));
ENDSEC;
DATA;
#1=PRODUCT_DEFINITION_CONTEXT('',#9,'design');
#2=APPLICATION_PROTOCOL_DEFINITION('INTERNATIONAL STANDARD','automotive_design',1994,#9);
#3=PRODUCT_CATEGORY_RELATIONSHIP('NONE','NONE',#10,#11);
#4=SHAPE_DEFINITION_REPRESENTATION(#12,#13);
#5= (GEOMETRIC_REPRESENTATION_CONTEXT(3)GLOBAL_UNCERTAINTY_ASSIGNED_CONTEXT((#16))GLOBAL_UNIT_ASSIGNED_CONTEXT((#18,#19,#20))REPRESENTATION_CONTEXT('NONE','WORKSPACE'));
#9=APPLICATION_CONTEXT(' ');
#10=PRODUCT_CATEGORY('part','NONE');
#11=PRODUCT_RELATED_PRODUCT_CATEGORY('detail',' ',(#22));
#12=PRODUCT_DEFINITION_SHAPE('NONE','NONE',#23);
#13=ADVANCED_BREP_SHAPE_REPRESENTATION('HALDERN_EH_23180_0226',(#24,#25),#5);
#16=UNCERTAINTY_MEASURE_WITH_UNIT(LENGTH_MEASURE(1.0E-006),#18,'','');
#18= (CONVERSION_BASED_UNIT('MILLIMETRE',#28)LENGTH_UNIT()NAMED_UNIT(#31));
#19= (NAMED_UNIT(#33)PLANE_ANGLE_UNIT()SI_UNIT($,.RADIAN.));
#20= (NAMED_UNIT(#33)SOLID_ANGLE_UNIT()SI_UNIT($,.STERADIAN.));
#22=PRODUCT('HALDERN_EH_23180_0226','HALDERN_EH_23180_0226','PART-HALDERN_EH_23180_0226-DESC',(#39));
#23=PRODUCT_DEFINITION('NONE','NONE',#40,#1);
#24=MANIFOLD_SOLID_BREP('HALDERN_EH_23180_0226',#41);
#25=AXIS2_PLACEMENT_3D('',#42,#43,#44);
#28=LENGTH_MEASURE_WITH_UNIT(LENGTH_MEASURE(1.0),#45);
#31=DIMENSIONAL_EXPONENTS(1.0,0.0,0.0,0.0,0.0,0.0,0.0);
#33=DIMENSIONAL_EXPONENTS(0.0,0.0,0.0,0.0,0.0,0.0,0.0);
#39=PRODUCT_CONTEXT('',#9,'mechanical');
#40=PRODUCT_DEFINITION_FORMATION_WITH_SPECIFIED_SOURCE(' ','NONE',#22,.NOT_KNOWN.);
#41=CLOSED_SHELL('',(#46,#47,#48,#49,#50,#51,#52,#53,#54,#55,#56,#57,#58,#59,#60,#61,#62,#63,#64,#65));
#42=CARTESIAN_POINT('',(0.0,0.0,0.0));
#43=DIRECTION('',(0.0,0.0,1.0));
#44=DIRECTION('',(1.0,0.0,0.0));
#45= (NAMED_UNIT(#31)LENGTH_UNIT()SI_UNIT(.MILLI.,.METRE.));
#46=ADVANCED_FACE('',(#67),#68,.F.);
#47=ADVANCED_FACE('',(#69),#70,.T.);
#48=ADVANCED_FACE('',(#71),#72,.F.);
#49=ADVANCED_FACE('',(#73),#74,.F.);
#50=ADVANCED_FACE('',(#75),#76,.F.);
#51=ADVANCED_FACE('',(#77),#78,.F.);
#52=ADVANCED_FACE('',(#79),#80,.T.);
#53=ADVANCED_FACE('',(#81),#82,.T.);
#54=ADVANCED_FACE('',(#83),#84,.T.);
#55=ADVANCED_FACE('',(#85),#86,.T.);
#56=ADVANCED_FACE('',(#87),#88,.F.);
#57=ADVANCED_FACE('',(#89),#90,.F.);
#58=ADVANCED_FACE('',(#91),#92,.F.);
#59=ADVANCED_FACE('',(#93),#94,.F.);
#60=ADVANCED_FACE('',(#95),#96,.F.);
#61=ADVANCED_FACE('',(#97),#98,.F.);
#62=ADVANCED_FACE('',(#99),#100,.T.);
#63=ADVANCED_FACE('',(#101),#102,.T.);
#64=ADVANCED_FACE('',(#103),#104,.T.);
#65=ADVANCED_FACE('',(#105,#106),#107,.T.);
#67=FACE_OUTER_BOUND('',#108,.T.);
#68=PLANE('',#109);
#69=FACE_OUTER_BOUND('',#110,.T.);
#70=PLANE('',#111);
#71=FACE_OUTER_BOUND('',#112,.T.);
#72=PLANE('',#113);
#73=FACE_OUTER_BOUND('',#114,.T.);
#74=PLANE('',#115);
#75=FACE_OUTER_BOUND('',#116,.T.);
#76=PLANE('',#117);
#77=FACE_OUTER_BOUND('',#118,.T.);
#78=PLANE('',#119);
#79=FACE_OUTER_BOUND('',#120,.T.);
#80=PLANE('',#121);
#81=FACE_OUTER_BOUND('',#122,.T.);
#82=PLANE('',#123);
#83=FACE_OUTER_BOUND('',#124,.T.);
#84=PLANE('',#125);
#85=FACE_OUTER_BOUND('',#126,.T.);
#86=PLANE('',#127);
#87=FACE_OUTER_BOUND('',#128,.T.);
#88=PLANE('',#129);
#89=FACE_OUTER_BOUND('',#130,.T.);
#90=PLANE('',#131);
#91=FACE_OUTER_BOUND('',#132,.T.);
#92=PLANE('',#133);
#93=FACE_OUTER_BOUND('',#134,.T.);
#94=CYLINDRICAL_SURFACE('',#135,13.0);
#95=FACE_OUTER_BOUND('',#136,.T.);
#96=PLANE('',#137);
#97=FACE_OUTER_BOUND('',#138,.T.);
#98=CYLINDRICAL_SURFACE('',#139,13.0);
#99=FACE_OUTER_BOUND('',#140,.T.);
#100=PLANE('',#141);
#101=FACE_OUTER_BOUND('',#142,.T.);
#102=PLANE('',#143);
#103=FACE_OUTER_BOUND('',#144,.T.);
#104=PLANE('',#145);
#105=FACE_OUTER_BOUND('',#146,.T.);
#106=FACE_BOUND('',#147,.T.);
#107=PLANE('',#148);
#108=EDGE_LOOP('',(#149,#150,#151,#152));
#109=AXIS2_PLACEMENT_3D('',#153,#154,#155);
#110=EDGE_LOOP('',(#156,#157,#158,#159,#160,#161,#162,#163));
#111=AXIS2_PLACEMENT_3D('',#164,#165,#166);
#112=EDGE_LOOP('',(#167,#168,#169,#170));
#113=AXIS2_PLACEMENT_3D('',#171,#172,#173);
#114=EDGE_LOOP('',(#174,#175,#176,#177,#178,#179,#180,#181));
#115=AXIS2_PLACEMENT_3D('',#182,#183,#184);
#116=EDGE_LOOP('',(#185,#186,#187,#188,#189,#190));
#117=AXIS2_PLACEMENT_3D('',#191,#192,#193);
#118=EDGE_LOOP('',(#194,#195,#196,#197));
#119=AXIS2_PLACEMENT_3D('',#198,#199,#200);
#120=EDGE_LOOP('',(#201,#202,#203,#204,#205));
#121=AXIS2_PLACEMENT_3D('',#206,#207,#208);
#122=EDGE_LOOP('',(#209,#210,#211,#212,#213,#214));
#123=AXIS2_PLACEMENT_3D('',#215,#216,#217);
#124=EDGE_LOOP('',(#218,#219,#220,#221,#222,#223));
#125=AXIS2_PLACEMENT_3D('',#224,#225,#226);
#126=EDGE_LOOP('',(#227,#228,#229,#230));
#127=AXIS2_PLACEMENT_3D('',#231,#232,#233);
#128=EDGE_LOOP('',(#234,#235,#236,#237));
#129=AXIS2_PLACEMENT_3D('',#238,#239,#240);
#130=EDGE_LOOP('',(#241,#242,#243,#244,#245,#246,#247,#248,#249,#250));
#131=AXIS2_PLACEMENT_3D('',#251,#252,#253);
#132=EDGE_LOOP('',(#254,#255,#256,#257,#258,#259));
#133=AXIS2_PLACEMENT_3D('',#260,#261,#262);
#134=EDGE_LOOP('',(#263,#264,#265,#266));
#135=AXIS2_PLACEMENT_3D('',#267,#268,#269);
#136=EDGE_LOOP('',(#270,#271,#272,#273,#274,#275));
#137=AXIS2_PLACEMENT_3D('',#276,#277,#278);
#138=EDGE_LOOP('',(#279,#280,#281,#282));
#139=AXIS2_PLACEMENT_3D('',#283,#284,#285);
#140=EDGE_LOOP('',(#286,#287,#288,#289,#290,#291));
#141=AXIS2_PLACEMENT_3D('',#292,#293,#294);
#142=EDGE_LOOP('',(#295,#296,#297,#298,#299,#300));
#143=AXIS2_PLACEMENT_3D('',#301,#302,#303);
#144=EDGE_LOOP('',(#304,#305,#306,#307,#308));
#145=AXIS2_PLACEMENT_3D('',#309,#310,#311);
#146=EDGE_LOOP('',(#312,#313,#314,#315));
#147=EDGE_LOOP('',(#316,#317,#318,#319));
#148=AXIS2_PLACEMENT_3D('',#320,#321,#322);
#149=ORIENTED_EDGE('',*,*,#323,.F.);
#150=ORIENTED_EDGE('',*,*,#324,.F.);
#151=ORIENTED_EDGE('',*,*,#325,.F.);
#152=ORIENTED_EDGE('',*,*,#326,.F.);
#153=CARTESIAN_POINT('',(184.0,3.80848657814453E-015,5.5));
#154=DIRECTION('',(0.0,0.0,1.0));
#155=DIRECTION('',(1.0,0.0,0.0));
#156=ORIENTED_EDGE('',*,*,#327,.T.);
#157=ORIENTED_EDGE('',*,*,#325,.T.);
#158=ORIENTED_EDGE('',*,*,#328,.T.);
#159=ORIENTED_EDGE('',*,*,#329,.F.);
#160=ORIENTED_EDGE('',*,*,#330,.T.);
#161=ORIENTED_EDGE('',*,*,#331,.F.);
#162=ORIENTED_EDGE('',*,*,#332,.F.);
#163=ORIENTED_EDGE('',*,*,#333,.F.);
#164=CARTESIAN_POINT('',(250.0,-29.9999999999997,0.0));
#165=DIRECTION('',(1.0,1.77635683940025E-015,0.0));
#166=DIRECTION('',(-1.77635683940025E-015,1.0,0.0));
#167=ORIENTED_EDGE('',*,*,#334,.F.);
#168=ORIENTED_EDGE('',*,*,#335,.F.);
#169=ORIENTED_EDGE('',*,*,#336,.F.);
#170=ORIENTED_EDGE('',*,*,#337,.F.);
#171=CARTESIAN_POINT('',(42.0,0.0,0.999999999999991));
#172=DIRECTION('',(1.0,0.0,0.0));
#173=DIRECTION('',(0.0,0.0,-1.0));
#174=ORIENTED_EDGE('',*,*,#338,.F.);
#175=ORIENTED_EDGE('',*,*,#339,.F.);
#176=ORIENTED_EDGE('',*,*,#340,.F.);
#177=ORIENTED_EDGE('',*,*,#341,.F.);
#178=ORIENTED_EDGE('',*,*,#342,.F.);
#179=ORIENTED_EDGE('',*,*,#343,.F.);
#180=ORIENTED_EDGE('',*,*,#344,.F.);
#181=ORIENTED_EDGE('',*,*,#345,.F.);
#182=CARTESIAN_POINT('',(80.4403227360296,0.0,50.0));
#183=DIRECTION('',(0.374606593415912,0.0,-0.927183854566788));
#184=DIRECTION('',(-0.927183854566787,-0.0,-0.374606593415912));
#185=ORIENTED_EDGE('',*,*,#346,.F.);
#186=ORIENTED_EDGE('',*,*,#347,.F.);
#187=ORIENTED_EDGE('',*,*,#348,.F.);
#188=ORIENTED_EDGE('',*,*,#349,.F.);
#189=ORIENTED_EDGE('',*,*,#350,.F.);
#190=ORIENTED_EDGE('',*,*,#335,.T.);
#191=CARTESIAN_POINT('',(20.0,0.0,0.999999999999999));
#192=DIRECTION('',(3.65868951296927E-016,0.0,1.0));
#193=DIRECTION('',(1.0,0.0,-3.65868951296927E-016));
#194=ORIENTED_EDGE('',*,*,#351,.F.);
#195=ORIENTED_EDGE('',*,*,#352,.F.);
#196=ORIENTED_EDGE('',*,*,#353,.F.);
#197=ORIENTED_EDGE('',*,*,#348,.T.);
#198=CARTESIAN_POINT('',(20.0,0.0,-1.38777878078145E-015));
#199=DIRECTION('',(-1.0,0.0,0.0));
#200=DIRECTION('',(0.0,0.0,1.0));
#201=ORIENTED_EDGE('',*,*,#340,.T.);
#202=ORIENTED_EDGE('',*,*,#354,.F.);
#203=ORIENTED_EDGE('',*,*,#355,.F.);
#204=ORIENTED_EDGE('',*,*,#332,.T.);
#205=ORIENTED_EDGE('',*,*,#356,.F.);
#206=CARTESIAN_POINT('',(55.25,-30.0,0.0));
#207=DIRECTION('',(1.34537937772291E-015,-1.0,0.0));
#208=DIRECTION('',(1.0,1.34537937772291E-015,0.0));
#209=ORIENTED_EDGE('',*,*,#338,.T.);
#210=ORIENTED_EDGE('',*,*,#357,.F.);
#211=ORIENTED_EDGE('',*,*,#358,.F.);
#212=ORIENTED_EDGE('',*,*,#351,.T.);
#213=ORIENTED_EDGE('',*,*,#347,.T.);
#214=ORIENTED_EDGE('',*,*,#359,.T.);
#215=CARTESIAN_POINT('',(0.0,-10.75,0.0));
#216=DIRECTION('',(0.0,-1.0,0.0));
#217=DIRECTION('',(1.0,0.0,0.0));
#218=ORIENTED_EDGE('',*,*,#339,.T.);
#219=ORIENTED_EDGE('',*,*,#359,.F.);
#220=ORIENTED_EDGE('',*,*,#346,.T.);
#221=ORIENTED_EDGE('',*,*,#334,.T.);
#222=ORIENTED_EDGE('',*,*,#360,.F.);
#223=ORIENTED_EDGE('',*,*,#354,.T.);
#224=CARTESIAN_POINT('',(36.0,-10.75,0.0));
#225=DIRECTION('',(-0.707106781186548,-0.707106781186547,0.0));
#226=DIRECTION('',(0.707106781186547,-0.707106781186548,0.0));
#227=ORIENTED_EDGE('',*,*,#345,.T.);
#228=ORIENTED_EDGE('',*,*,#361,.F.);
#229=ORIENTED_EDGE('',*,*,#362,.F.);
#230=ORIENTED_EDGE('',*,*,#357,.T.);
#231=CARTESIAN_POINT('',(0.0,10.75,0.0));
#232=DIRECTION('',(-1.0,-0.0,0.0));
#233=DIRECTION('',(0.0,-1.0,-0.0));
#234=ORIENTED_EDGE('',*,*,#352,.T.);
#235=ORIENTED_EDGE('',*,*,#358,.T.);
#236=ORIENTED_EDGE('',*,*,#362,.T.);
#237=ORIENTED_EDGE('',*,*,#363,.T.);
#238=CARTESIAN_POINT('',(130.936405945556,1.16973953935108E-013,0.0));
#239=DIRECTION('',(0.0,0.0,1.0));
#240=DIRECTION('',(1.0,0.0,0.0));
#241=ORIENTED_EDGE('',*,*,#364,.T.);
#242=ORIENTED_EDGE('',*,*,#333,.T.);
#243=ORIENTED_EDGE('',*,*,#355,.T.);
#244=ORIENTED_EDGE('',*,*,#360,.T.);
#245=ORIENTED_EDGE('',*,*,#337,.T.);
#246=ORIENTED_EDGE('',*,*,#365,.T.);
#247=ORIENTED_EDGE('',*,*,#366,.T.);
#248=ORIENTED_EDGE('',*,*,#329,.T.);
#249=ORIENTED_EDGE('',*,*,#367,.T.);
#250=ORIENTED_EDGE('',*,*,#368,.T.);
#251=CARTESIAN_POINT('',(130.936405945556,1.16973953935108E-013,0.0));
#252=DIRECTION('',(0.0,0.0,1.0));
#253=DIRECTION('',(1.0,0.0,0.0));
#254=ORIENTED_EDGE('',*,*,#367,.F.);
#255=ORIENTED_EDGE('',*,*,#328,.F.);
#256=ORIENTED_EDGE('',*,*,#324,.T.);
#257=ORIENTED_EDGE('',*,*,#369,.T.);
#258=ORIENTED_EDGE('',*,*,#370,.F.);
#259=ORIENTED_EDGE('',*,*,#371,.F.);
#260=CARTESIAN_POINT('',(118.0,13.0,0.0));
#261=DIRECTION('',(-4.93432455954283E-017,1.0,0.0));
#262=DIRECTION('',(-1.0,-4.93432455954283E-017,-0.0));
#263=ORIENTED_EDGE('',*,*,#323,.T.);
#264=ORIENTED_EDGE('',*,*,#372,.T.);
#265=ORIENTED_EDGE('',*,*,#373,.F.);
#266=ORIENTED_EDGE('',*,*,#369,.F.);
#267=CARTESIAN_POINT('',(118.0,8.4360645115641E-015,0.0));
#268=DIRECTION('',(0.0,0.0,1.0));
#269=DIRECTION('',(0.0,-1.0,0.0));
#270=ORIENTED_EDGE('',*,*,#364,.F.);
#271=ORIENTED_EDGE('',*,*,#374,.T.);
#272=ORIENTED_EDGE('',*,*,#375,.F.);
#273=ORIENTED_EDGE('',*,*,#372,.F.);
#274=ORIENTED_EDGE('',*,*,#326,.T.);
#275=ORIENTED_EDGE('',*,*,#327,.F.);
#276=CARTESIAN_POINT('',(73.0000000515564,-13.0,0.0));
#277=DIRECTION('',(0.0,-1.0,0.0));
#278=DIRECTION('',(1.0,0.0,0.0));
#279=ORIENTED_EDGE('',*,*,#368,.F.);
#280=ORIENTED_EDGE('',*,*,#371,.T.);
#281=ORIENTED_EDGE('',*,*,#376,.F.);
#282=ORIENTED_EDGE('',*,*,#374,.F.);
#283=CARTESIAN_POINT('',(73.0,9.0692197561725E-015,0.0));
#284=DIRECTION('',(0.0,-0.0,1.0));
#285=DIRECTION('',(3.96587719929077E-009,1.0,0.0));
#286=ORIENTED_EDGE('',*,*,#344,.T.);
#287=ORIENTED_EDGE('',*,*,#377,.F.);
#288=ORIENTED_EDGE('',*,*,#349,.T.);
#289=ORIENTED_EDGE('',*,*,#353,.T.);
#290=ORIENTED_EDGE('',*,*,#363,.F.);
#291=ORIENTED_EDGE('',*,*,#361,.T.);
#292=CARTESIAN_POINT('',(36.0,10.75,0.0));
#293=DIRECTION('',(0.0,1.0,0.0));
#294=DIRECTION('',(-1.0,0.0,0.0));
#295=ORIENTED_EDGE('',*,*,#343,.T.);
#296=ORIENTED_EDGE('',*,*,#378,.F.);
#297=ORIENTED_EDGE('',*,*,#365,.F.);
#298=ORIENTED_EDGE('',*,*,#336,.T.);
#299=ORIENTED_EDGE('',*,*,#350,.T.);
#300=ORIENTED_EDGE('',*,*,#377,.T.);
#301=CARTESIAN_POINT('',(55.25,30.0,0.0));
#302=DIRECTION('',(-0.707106781186547,0.707106781186548,0.0));
#303=DIRECTION('',(-0.707106781186548,-0.707106781186547,-0.0));
#304=ORIENTED_EDGE('',*,*,#342,.T.);
#305=ORIENTED_EDGE('',*,*,#379,.F.);
#306=ORIENTED_EDGE('',*,*,#330,.F.);
#307=ORIENTED_EDGE('',*,*,#366,.F.);
#308=ORIENTED_EDGE('',*,*,#378,.T.);
#309=CARTESIAN_POINT('',(250.0,30.0000000000003,0.0));
#310=DIRECTION('',(-1.64181890162796E-015,1.0,0.0));
#311=DIRECTION('',(-1.0,-1.64181890162796E-015,-0.0));
#312=ORIENTED_EDGE('',*,*,#341,.T.);
#313=ORIENTED_EDGE('',*,*,#356,.T.);
#314=ORIENTED_EDGE('',*,*,#331,.T.);
#315=ORIENTED_EDGE('',*,*,#379,.T.);
#316=ORIENTED_EDGE('',*,*,#370,.T.);
#317=ORIENTED_EDGE('',*,*,#373,.T.);
#318=ORIENTED_EDGE('',*,*,#375,.T.);
#319=ORIENTED_EDGE('',*,*,#376,.T.);
#320=CARTESIAN_POINT('',(130.936405945556,1.16973953935108E-013,40.0));
#321=DIRECTION('',(0.0,0.0,1.0));
#322=DIRECTION('',(1.0,0.0,0.0));
#323=EDGE_CURVE('',#380,#381,#382,.T.);
#324=EDGE_CURVE('',#383,#380,#384,.T.);
#325=EDGE_CURVE('',#385,#383,#386,.T.);
#326=EDGE_CURVE('',#381,#385,#387,.T.);
#327=EDGE_CURVE('',#388,#385,#389,.T.);
#328=EDGE_CURVE('',#383,#390,#391,.T.);
#329=EDGE_CURVE('',#392,#390,#393,.T.);
#330=EDGE_CURVE('',#392,#394,#395,.T.);
#331=EDGE_CURVE('',#396,#394,#397,.T.);
#332=EDGE_CURVE('',#398,#396,#399,.T.);
#333=EDGE_CURVE('',#388,#398,#400,.T.);
#334=EDGE_CURVE('',#401,#402,#403,.T.);
#335=EDGE_CURVE('',#404,#401,#405,.T.);
#336=EDGE_CURVE('',#406,#404,#407,.T.);
#337=EDGE_CURVE('',#402,#406,#408,.T.);
#338=EDGE_CURVE('',#409,#410,#411,.T.);
#339=EDGE_CURVE('',#412,#409,#413,.T.);
#340=EDGE_CURVE('',#414,#412,#415,.T.);
#341=EDGE_CURVE('',#416,#414,#417,.T.);
#342=EDGE_CURVE('',#418,#416,#419,.T.);
#343=EDGE_CURVE('',#420,#418,#421,.T.);
#344=EDGE_CURVE('',#422,#420,#423,.T.);
#345=EDGE_CURVE('',#410,#422,#424,.T.);
#346=EDGE_CURVE('',#425,#401,#426,.T.);
#347=EDGE_CURVE('',#427,#425,#428,.T.);
#348=EDGE_CURVE('',#429,#427,#430,.T.);
#349=EDGE_CURVE('',#431,#429,#432,.T.);
#350=EDGE_CURVE('',#404,#431,#433,.T.);
#351=EDGE_CURVE('',#434,#427,#435,.T.);
#352=EDGE_CURVE('',#436,#434,#437,.T.);
#353=EDGE_CURVE('',#429,#436,#438,.T.);
#354=EDGE_CURVE('',#439,#412,#440,.T.);
#355=EDGE_CURVE('',#398,#439,#441,.T.);
#356=EDGE_CURVE('',#414,#396,#442,.T.);
#357=EDGE_CURVE('',#443,#410,#444,.T.);
#358=EDGE_CURVE('',#434,#443,#445,.T.);
#359=EDGE_CURVE('',#425,#409,#446,.T.);
#360=EDGE_CURVE('',#439,#402,#447,.T.);
#361=EDGE_CURVE('',#448,#422,#449,.T.);
#362=EDGE_CURVE('',#443,#448,#450,.T.);
#363=EDGE_CURVE('',#448,#436,#451,.T.);
#364=EDGE_CURVE('',#452,#388,#453,.T.);
#365=EDGE_CURVE('',#406,#454,#455,.T.);
#366=EDGE_CURVE('',#454,#392,#456,.T.);
#367=EDGE_CURVE('',#390,#457,#458,.T.);
#368=EDGE_CURVE('',#457,#452,#459,.T.);
#369=EDGE_CURVE('',#380,#460,#461,.T.);
#370=EDGE_CURVE('',#462,#460,#463,.T.);
#371=EDGE_CURVE('',#457,#462,#464,.T.);
#372=EDGE_CURVE('',#381,#465,#466,.T.);
#373=EDGE_CURVE('',#460,#465,#467,.T.);
#374=EDGE_CURVE('',#452,#468,#469,.T.);
#375=EDGE_CURVE('',#465,#468,#470,.T.);
#376=EDGE_CURVE('',#468,#462,#471,.T.);
#377=EDGE_CURVE('',#431,#420,#472,.T.);
#378=EDGE_CURVE('',#454,#418,#473,.T.);
#379=EDGE_CURVE('',#394,#416,#474,.T.);
#380=VERTEX_POINT('',#475);
#381=VERTEX_POINT('',#476);
#382=CIRCLE('',#477,13.0);
#383=VERTEX_POINT('',#478);
#384=LINE('',#479,#480);
#385=VERTEX_POINT('',#481);
#386=LINE('',#482,#483);
#387=LINE('',#484,#485);
#388=VERTEX_POINT('',#486);
#389=LINE('',#487,#488);
#390=VERTEX_POINT('',#489);
#391=LINE('',#490,#491);
#392=VERTEX_POINT('',#492);
#393=LINE('',#493,#494);
#394=VERTEX_POINT('',#495);
#395=LINE('',#496,#497);
#396=VERTEX_POINT('',#498);
#397=LINE('',#499,#500);
#398=VERTEX_POINT('',#501);
#399=LINE('',#502,#503);
#400=LINE('',#504,#505);
#401=VERTEX_POINT('',#506);
#402=VERTEX_POINT('',#507);
#403=LINE('',#508,#509);
#404=VERTEX_POINT('',#510);
#405=LINE('',#511,#512);
#406=VERTEX_POINT('',#513);
#407=LINE('',#514,#515);
#408=LINE('',#516,#517);
#409=VERTEX_POINT('',#518);
#410=VERTEX_POINT('',#519);
#411=LINE('',#520,#521);
#412=VERTEX_POINT('',#522);
#413=LINE('',#523,#524);
#414=VERTEX_POINT('',#525);
#415=LINE('',#526,#527);
#416=VERTEX_POINT('',#528);
#417=LINE('',#529,#530);
#418=VERTEX_POINT('',#531);
#419=LINE('',#532,#533);
#420=VERTEX_POINT('',#534);
#421=LINE('',#535,#536);
#422=VERTEX_POINT('',#537);
#423=LINE('',#538,#539);
#424=LINE('',#540,#541);
#425=VERTEX_POINT('',#542);
#426=LINE('',#543,#544);
#427=VERTEX_POINT('',#545);
#428=LINE('',#546,#547);
#429=VERTEX_POINT('',#548);
#430=LINE('',#549,#550);
#431=VERTEX_POINT('',#551);
#432=LINE('',#552,#553);
#433=LINE('',#554,#555);
#434=VERTEX_POINT('',#556);
#435=LINE('',#557,#558);
#436=VERTEX_POINT('',#559);
#437=LINE('',#560,#561);
#438=LINE('',#562,#563);
#439=VERTEX_POINT('',#564);
#440=LINE('',#565,#566);
#441=LINE('',#567,#568);
#442=LINE('',#569,#570);
#443=VERTEX_POINT('',#571);
#444=LINE('',#572,#573);
#445=LINE('',#574,#575);
#446=LINE('',#576,#577);
#447=LINE('',#578,#579);
#448=VERTEX_POINT('',#580);
#449=LINE('',#581,#582);
#450=LINE('',#583,#584);
#451=LINE('',#585,#586);
#452=VERTEX_POINT('',#587);
#453=LINE('',#588,#589);
#454=VERTEX_POINT('',#590);
#455=LINE('',#591,#592);
#456=LINE('',#593,#594);
#457=VERTEX_POINT('',#595);
#458=LINE('',#596,#597);
#459=CIRCLE('',#598,13.0);
#460=VERTEX_POINT('',#599);
#461=LINE('',#600,#601);
#462=VERTEX_POINT('',#602);
#463=LINE('',#603,#604);
#464=LINE('',#605,#606);
#465=VERTEX_POINT('',#607);
#466=LINE('',#608,#609);
#467=CIRCLE('',#610,13.0);
#468=VERTEX_POINT('',#611);
#469=LINE('',#612,#613);
#470=LINE('',#614,#615);
#471=CIRCLE('',#616,13.0);
#472=LINE('',#617,#618);
#473=LINE('',#619,#620);
#474=LINE('',#621,#622);
#475=CARTESIAN_POINT('',(118.0,13.0,5.5));
#476=CARTESIAN_POINT('',(118.0,-13.0,5.5));
#477=AXIS2_PLACEMENT_3D('',#623,#624,#625);
#478=CARTESIAN_POINT('',(250.0,13.0,5.5));
#479=CARTESIAN_POINT('',(118.0,13.0,5.5));
#480=VECTOR('',#626,10.0);
#481=CARTESIAN_POINT('',(250.0,-13.0,5.5));
#482=CARTESIAN_POINT('',(250.0,-14.9999999999998,5.5));
#483=VECTOR('',#627,10.0);
#484=CARTESIAN_POINT('',(250.0,-13.0,5.5));
#485=VECTOR('',#628,10.0);
#486=CARTESIAN_POINT('',(250.0,-13.0,0.0));
#487=CARTESIAN_POINT('',(250.0,-13.0,0.0));
#488=VECTOR('',#629,10.0);
#489=CARTESIAN_POINT('',(250.0,13.0,0.0));
#490=CARTESIAN_POINT('',(250.0,13.0,0.0));
#491=VECTOR('',#630,10.0);
#492=CARTESIAN_POINT('',(250.0,30.0000000000003,0.0));
#493=CARTESIAN_POINT('',(250.0,30.0000000000003,0.0));
#494=VECTOR('',#631,10.0);
#495=CARTESIAN_POINT('',(250.0,30.0000000000003,40.0));
#496=CARTESIAN_POINT('',(250.0,30.0000000000003,0.0));
#497=VECTOR('',#632,10.0);
#498=CARTESIAN_POINT('',(250.0,-29.9999999999997,40.0));
#499=CARTESIAN_POINT('',(250.0,30.0000000000003,40.0));
#500=VECTOR('',#633,10.0);
#501=CARTESIAN_POINT('',(250.0,-29.9999999999997,0.0));
#502=CARTESIAN_POINT('',(250.0,-29.9999999999997,0.0));
#503=VECTOR('',#634,10.0);
#504=CARTESIAN_POINT('',(250.0,30.0000000000003,0.0));
#505=VECTOR('',#635,10.0);
#506=CARTESIAN_POINT('',(42.0,-16.75,0.999999999999991));
#507=CARTESIAN_POINT('',(42.0,-16.75,0.0));
#508=CARTESIAN_POINT('',(42.0,-16.75,0.499999999999995));
#509=VECTOR('',#636,10.0);
#510=CARTESIAN_POINT('',(42.0,16.75,0.999999999999991));
#511=CARTESIAN_POINT('',(42.0,0.0,0.999999999999991));
#512=VECTOR('',#637,10.0);
#513=CARTESIAN_POINT('',(42.0,16.75,0.0));
#514=CARTESIAN_POINT('',(42.0,16.75,0.499999999999995));
#515=VECTOR('',#638,10.0);
#516=CARTESIAN_POINT('',(42.0,5.84869769675541E-014,0.0));
#517=VECTOR('',#639,10.0);
#518=CARTESIAN_POINT('',(36.0,-10.75,32.0449441300656));
#519=CARTESIAN_POINT('',(0.0,-10.75,17.5));
#520=CARTESIAN_POINT('',(37.1810309972567,-10.75,32.5221116264816));
#521=VECTOR('',#640,10.0);
#522=CARTESIAN_POINT('',(55.25,-30.0,39.8224489773924));
#523=CARTESIAN_POINT('',(42.4712363660877,-17.2212363660877,34.6594933355433));
#524=VECTOR('',#641,10.0);
#525=CARTESIAN_POINT('',(55.6894542018667,-30.0,40.0));
#526=CARTESIAN_POINT('',(60.9294119894344,-30.0,42.1170803684465));
#527=VECTOR('',#642,10.0);
#528=CARTESIAN_POINT('',(55.6894542018667,30.0,40.0));
#529=CARTESIAN_POINT('',(55.6894542018667,5.84869769675541E-014,40.0));
#530=VECTOR('',#643,10.0);
#531=CARTESIAN_POINT('',(55.25,30.0,39.8224489773924));
#532=CARTESIAN_POINT('',(144.639768518422,30.0000000000001,75.9382597801689));
#533=VECTOR('',#644,10.0);
#534=CARTESIAN_POINT('',(36.0,10.75,32.0449441300656));
#535=CARTESIAN_POINT('',(51.3699369240484,26.1199369240484,38.2548017368133));
#536=VECTOR('',#645,10.0);
#537=CARTESIAN_POINT('',(0.0,10.75,17.5));
#538=CARTESIAN_POINT('',(52.6550892003046,10.75,38.7740369606126));
#539=VECTOR('',#646,10.0);
#540=CARTESIAN_POINT('',(4.44089209850063E-015,5.375,17.5));
#541=VECTOR('',#647,10.0);
#542=CARTESIAN_POINT('',(36.0,-10.75,0.999999999999993));
#543=CARTESIAN_POINT('',(29.3125,-4.06249999999999,0.999999999999995));
#544=VECTOR('',#648,10.0);
#545=CARTESIAN_POINT('',(20.0,-10.75,0.999999999999999));
#546=CARTESIAN_POINT('',(10.0,-10.75,1.0));
#547=VECTOR('',#649,10.0);
#548=CARTESIAN_POINT('',(20.0,10.75,0.999999999999999));
#549=CARTESIAN_POINT('',(20.0,0.0,0.999999999999999));
#550=VECTOR('',#650,10.0);
#551=CARTESIAN_POINT('',(36.0,10.75,0.999999999999993));
#552=CARTESIAN_POINT('',(28.0,10.75,0.999999999999996));
#553=VECTOR('',#651,10.0);
#554=CARTESIAN_POINT('',(38.9375,13.6875,0.999999999999992));
#555=VECTOR('',#652,10.0);
#556=CARTESIAN_POINT('',(20.0,-10.75,-1.32374151655497E-015));
#557=CARTESIAN_POINT('',(20.0,-10.75,-6.93889390390723E-016));
#558=VECTOR('',#653,10.0);
#559=CARTESIAN_POINT('',(20.0,10.75,-1.32374151655497E-015));
#560=CARTESIAN_POINT('',(20.0,5.84869769675541E-014,0.0));
#561=VECTOR('',#654,10.0);
#562=CARTESIAN_POINT('',(20.0,10.75,-6.93889390390723E-016));
#563=VECTOR('',#655,10.0);
#564=CARTESIAN_POINT('',(55.25,-30.0,0.0));
#565=CARTESIAN_POINT('',(55.25,-30.0,0.0));
#566=VECTOR('',#656,10.0);
#567=CARTESIAN_POINT('',(250.0,-29.9999999999997,0.0));
#568=VECTOR('',#657,10.0);
#569=CARTESIAN_POINT('',(250.0,-29.9999999999997,40.0));
#570=VECTOR('',#658,10.0);
#571=CARTESIAN_POINT('',(0.0,-10.75,0.0));
#572=CARTESIAN_POINT('',(0.0,-10.75,0.0));
#573=VECTOR('',#659,10.0);
#574=CARTESIAN_POINT('',(36.0,-10.75,0.0));
#575=VECTOR('',#660,10.0);
#576=CARTESIAN_POINT('',(36.0,-10.75,0.0));
#577=VECTOR('',#661,10.0);
#578=CARTESIAN_POINT('',(55.25,-30.0,0.0));
#579=VECTOR('',#662,10.0);
#580=CARTESIAN_POINT('',(0.0,10.75,0.0));
#581=CARTESIAN_POINT('',(0.0,10.75,0.0));
#582=VECTOR('',#663,10.0);
#583=CARTESIAN_POINT('',(0.0,0.0,0.0));
#584=VECTOR('',#664,10.0);
#585=CARTESIAN_POINT('',(0.0,10.75,0.0));
#586=VECTOR('',#665,10.0);
#587=CARTESIAN_POINT('',(73.0000000515564,-13.0,0.0));
#588=CARTESIAN_POINT('',(124.468202972778,-13.0,0.0));
#589=VECTOR('',#666,10.0);
#590=CARTESIAN_POINT('',(55.25,30.0,0.0));
#591=CARTESIAN_POINT('',(36.0,10.75,0.0));
#592=VECTOR('',#667,10.0);
#593=CARTESIAN_POINT('',(55.25,30.0,0.0));
#594=VECTOR('',#668,10.0);
#595=CARTESIAN_POINT('',(73.0000000515564,13.0,0.0));
#596=CARTESIAN_POINT('',(124.468202972778,13.0,0.0));
#597=VECTOR('',#669,10.0);
#598=AXIS2_PLACEMENT_3D('',#670,#671,#672);
#599=CARTESIAN_POINT('',(118.0,13.0,40.0));
#600=CARTESIAN_POINT('',(118.0,13.0,0.0));
#601=VECTOR('',#673,10.0);
#602=CARTESIAN_POINT('',(73.0000000515564,13.0,40.0));
#603=CARTESIAN_POINT('',(124.468202972778,13.0,40.0));
#604=VECTOR('',#674,10.0);
#605=CARTESIAN_POINT('',(73.0000000515564,13.0,0.0));
#606=VECTOR('',#675,10.0);
#607=CARTESIAN_POINT('',(118.0,-13.0,40.0));
#608=CARTESIAN_POINT('',(118.0,-13.0,0.0));
#609=VECTOR('',#676,10.0);
#610=AXIS2_PLACEMENT_3D('',#677,#678,#679);
#611=CARTESIAN_POINT('',(73.0000000515564,-13.0,40.0));
#612=CARTESIAN_POINT('',(73.0000000515564,-13.0,0.0));
#613=VECTOR('',#680,10.0);
#614=CARTESIAN_POINT('',(101.968202998556,-13.0,40.0));
#615=VECTOR('',#681,10.0);
#616=AXIS2_PLACEMENT_3D('',#682,#683,#684);
#617=CARTESIAN_POINT('',(36.0,10.75,0.0));
#618=VECTOR('',#685,10.0);
#619=CARTESIAN_POINT('',(55.25,30.0,0.0));
#620=VECTOR('',#686,10.0);
#621=CARTESIAN_POINT('',(55.25,30.0,40.0));
#622=VECTOR('',#687,10.0);
#623=CARTESIAN_POINT('',(118.0,8.4360645115641E-015,5.5));
#624=DIRECTION('',(-0.0,-0.0,-1.0));
#625=DIRECTION('',(0.0,-1.0,0.0));
#626=DIRECTION('',(-1.0,1.34572487833352E-016,0.0));
#627=DIRECTION('',(-1.77635683940025E-015,1.0,0.0));
#628=DIRECTION('',(1.0,-2.01858731750029E-016,0.0));
#629=DIRECTION('',(0.0,0.0,1.0));
#630=DIRECTION('',(0.0,0.0,-1.0));
#631=DIRECTION('',(1.77635683940025E-015,-1.0,0.0));
#632=DIRECTION('',(0.0,0.0,1.0));
#633=DIRECTION('',(-1.77635683940025E-015,1.0,0.0));
#634=DIRECTION('',(0.0,0.0,1.0));
#635=DIRECTION('',(1.77635683940025E-015,-1.0,0.0));
#636=DIRECTION('',(0.0,0.0,-1.0));
#637=DIRECTION('',(0.0,-1.0,0.0));
#638=DIRECTION('',(0.0,0.0,1.0));
#639=DIRECTION('',(0.0,1.0,0.0));
#640=DIRECTION('',(-0.927183854566787,-0.0,-0.374606593415912));
#641=DIRECTION('',(-0.679904521866932,0.679904521866933,-0.274699257898153));
#642=DIRECTION('',(-0.927183854566787,-1.24741403729179E-015,-0.374606593415912));
#643=DIRECTION('',(0.0,-1.0,0.0));
#644=DIRECTION('',(0.927183854566787,1.52226797771202E-015,0.374606593415912));
#645=DIRECTION('',(0.679904521866933,0.679904521866932,0.274699257898153));
#646=DIRECTION('',(0.927183854566787,0.0,0.374606593415912));
#647=DIRECTION('',(0.0,1.0,0.0));
#648=DIRECTION('',(0.707106781186547,-0.707106781186548,-2.58708416487667E-016));
#649=DIRECTION('',(1.0,0.0,-3.65868951296927E-016));
#650=DIRECTION('',(0.0,-1.0,0.0));
#651=DIRECTION('',(-1.0,0.0,3.65868951296927E-016));
#652=DIRECTION('',(-0.707106781186548,-0.707106781186547,2.58708416487667E-016));
#653=DIRECTION('',(0.0,0.0,1.0));
#654=DIRECTION('',(0.0,-1.0,0.0));
#655=DIRECTION('',(0.0,0.0,-1.0));
#656=DIRECTION('',(0.0,0.0,1.0));
#657=DIRECTION('',(-1.0,-1.34537937772291E-015,0.0));
#658=DIRECTION('',(1.0,1.34537937772291E-015,0.0));
#659=DIRECTION('',(0.0,0.0,1.0));
#660=DIRECTION('',(-1.0,-0.0,-0.0));
#661=DIRECTION('',(0.0,0.0,1.0));
#662=DIRECTION('',(-0.707106781186547,0.707106781186548,0.0));
#663=DIRECTION('',(0.0,0.0,1.0));
#664=DIRECTION('',(0.0,1.0,0.0));
#665=DIRECTION('',(1.0,0.0,0.0));
#666=DIRECTION('',(1.0,-2.01858731750029E-016,0.0));
#667=DIRECTION('',(0.707106781186548,0.707106781186547,0.0));
#668=DIRECTION('',(1.0,1.64181890162796E-015,0.0));
#669=DIRECTION('',(-1.0,-4.93432455954283E-017,0.0));
#670=CARTESIAN_POINT('',(73.0,9.0692197561725E-015,0.0));
#671=DIRECTION('',(0.0,-0.0,1.0));
#672=DIRECTION('',(3.96587719929077E-009,1.0,0.0));
#673=DIRECTION('',(0.0,0.0,1.0));
#674=DIRECTION('',(1.0,4.93432455954283E-017,0.0));
#675=DIRECTION('',(0.0,0.0,1.0));
#676=DIRECTION('',(0.0,0.0,1.0));
#677=CARTESIAN_POINT('',(118.0,8.4360645115641E-015,40.0));
#678=DIRECTION('',(-0.0,-0.0,-1.0));
#679=DIRECTION('',(0.0,-1.0,0.0));
#680=DIRECTION('',(0.0,0.0,1.0));
#681=DIRECTION('',(-1.0,0.0,0.0));
#682=CARTESIAN_POINT('',(73.0,9.0692197561725E-015,40.0));
#683=DIRECTION('',(0.0,0.0,-1.0));
#684=DIRECTION('',(3.96587719929077E-009,1.0,0.0));
#685=DIRECTION('',(0.0,0.0,1.0));
#686=DIRECTION('',(0.0,0.0,1.0));
#687=DIRECTION('',(-1.0,-1.64181890162796E-015,-0.0));
ENDSEC;
END-ISO-10303-21;
