ISO-10303-21;
HEADER;
FILE_DESCRIPTION(('STEP AP214'),'1');
FILE_NAME(' ','  ',('TraceParts'),('TraceParts S.A.'),'XStep 1.0',' ',' ');
FILE_SCHEMA(('automotive_design'));
ENDSEC;
DATA;
#1=MECHANICAL_DESIGN_GEOMETRIC_PRESENTATION_REPRESENTATION(' ',(#10,#11,#12,#13,#14,#15,#16,#17,#18,#19,#20,#21,#22,#23,#24,#25,#26,#27,#28,#29,#30,#31,#32,#33,#34,#35,#36,#37,#38,#39,#40,#41,#42,#43,#44,#45,#46,#47,#48,#49,#50,#51,#52,#53),#6);
#2=PRODUCT_DEFINITION_CONTEXT('',#54,'design');
#3=APPLICATION_PROTOCOL_DEFINITION('INTERNATIONAL STANDARD','automotive_design',1994,#54);
#4=PRODUCT_CATEGORY_RELATIONSHIP('NONE','NONE',#55,#56);
#5=SHAPE_DEFINITION_REPRESENTATION(#57,#58);
#6= (GEOMETRIC_REPRESENTATION_CONTEXT(3)GLOBAL_UNCERTAINTY_ASSIGNED_CONTEXT((#61))GLOBAL_UNIT_ASSIGNED_CONTEXT((#63,#64,#65))REPRESENTATION_CONTEXT('NONE','WORKSPACE'));
#10=STYLED_ITEM('',(#67),#68);
#11=STYLED_ITEM('',(#69),#70);
#12=STYLED_ITEM('',(#71),#72);
#13=STYLED_ITEM('',(#73),#74);
#14=STYLED_ITEM('',(#75),#76);
#15=STYLED_ITEM('',(#77),#78);
#16=STYLED_ITEM('',(#79),#80);
#17=STYLED_ITEM('',(#81),#82);
#18=STYLED_ITEM('',(#83),#84);
#19=STYLED_ITEM('',(#85),#86);
#20=STYLED_ITEM('',(#87),#88);
#21=STYLED_ITEM('',(#89),#90);
#22=STYLED_ITEM('',(#91),#92);
#23=STYLED_ITEM('',(#93),#94);
#24=STYLED_ITEM('',(#95),#96);
#25=STYLED_ITEM('',(#97),#98);
#26=STYLED_ITEM('',(#99),#100);
#27=STYLED_ITEM('',(#101),#102);
#28=STYLED_ITEM('',(#103),#104);
#29=STYLED_ITEM('',(#105),#106);
#30=STYLED_ITEM('',(#107),#108);
#31=STYLED_ITEM('',(#109),#110);
#32=STYLED_ITEM('',(#111),#112);
#33=STYLED_ITEM('',(#113),#114);
#34=STYLED_ITEM('',(#115),#116);
#35=STYLED_ITEM('',(#117),#118);
#36=STYLED_ITEM('',(#119),#120);
#37=STYLED_ITEM('',(#121),#122);
#38=STYLED_ITEM('',(#123),#124);
#39=STYLED_ITEM('',(#125),#126);
#40=STYLED_ITEM('',(#127),#128);
#41=STYLED_ITEM('',(#129),#130);
#42=STYLED_ITEM('',(#131),#132);
#43=STYLED_ITEM('',(#133),#134);
#44=STYLED_ITEM('',(#135),#136);
#45=STYLED_ITEM('',(#137),#138);
#46=STYLED_ITEM('',(#139),#140);
#47=STYLED_ITEM('',(#141),#142);
#48=STYLED_ITEM('',(#143),#144);
#49=STYLED_ITEM('',(#145),#146);
#50=STYLED_ITEM('',(#147),#148);
#51=STYLED_ITEM('',(#149),#150);
#52=STYLED_ITEM('',(#151),#152);
#53=STYLED_ITEM('',(#153),#154);
#54=APPLICATION_CONTEXT(' ');
#55=PRODUCT_CATEGORY('part','NONE');
#56=PRODUCT_RELATED_PRODUCT_CATEGORY('detail',' ',(#155));
#57=PRODUCT_DEFINITION_SHAPE('NONE','NONE',#156);
#58=ADVANCED_BREP_SHAPE_REPRESENTATION('1',(#132,#157),#6);
#61=UNCERTAINTY_MEASURE_WITH_UNIT(LENGTH_MEASURE(1.0E-006),#63,'','');
#63= (CONVERSION_BASED_UNIT('MILLIMETRE',#160)LENGTH_UNIT()NAMED_UNIT(#163));
#64= (NAMED_UNIT(#165)PLANE_ANGLE_UNIT()SI_UNIT($,.RADIAN.));
#65= (NAMED_UNIT(#165)SOLID_ANGLE_UNIT()SI_UNIT($,.STERADIAN.));
#67=PRESENTATION_STYLE_ASSIGNMENT((#171));
#68=VERTEX_POINT('',#172);
#69=PRESENTATION_STYLE_ASSIGNMENT((#173));
#70=ADVANCED_FACE('',(#174),#175,.T.);
#71=PRESENTATION_STYLE_ASSIGNMENT((#176));
#72=EDGE_CURVE('',#108,#120,#177,.T.);
#73=PRESENTATION_STYLE_ASSIGNMENT((#178));
#74=EDGE_CURVE('',#120,#114,#179,.T.);
#75=PRESENTATION_STYLE_ASSIGNMENT((#180));
#76=ADVANCED_FACE('',(#181,#182),#183,.T.);
#77=PRESENTATION_STYLE_ASSIGNMENT((#184));
#78=VERTEX_POINT('',#185);
#79=PRESENTATION_STYLE_ASSIGNMENT((#186));
#80=EDGE_CURVE('',#154,#96,#187,.T.);
#81=PRESENTATION_STYLE_ASSIGNMENT((#188));
#82=EDGE_CURVE('',#96,#114,#189,.T.);
#83=PRESENTATION_STYLE_ASSIGNMENT((#190));
#84=VERTEX_POINT('',#191);
#85=PRESENTATION_STYLE_ASSIGNMENT((#192));
#86=ADVANCED_FACE('',(#193),#194,.T.);
#87=PRESENTATION_STYLE_ASSIGNMENT((#195));
#88=EDGE_CURVE('',#142,#136,#196,.T.);
#89=PRESENTATION_STYLE_ASSIGNMENT((#197));
#90=ADVANCED_FACE('',(#198),#199,.T.);
#91=PRESENTATION_STYLE_ASSIGNMENT((#200));
#92=EDGE_CURVE('',#126,#78,#201,.T.);
#93=PRESENTATION_STYLE_ASSIGNMENT((#202));
#94=EDGE_CURVE('',#68,#78,#203,.T.);
#95=PRESENTATION_STYLE_ASSIGNMENT((#204));
#96=VERTEX_POINT('',#205);
#97=PRESENTATION_STYLE_ASSIGNMENT((#206));
#98=EDGE_CURVE('',#120,#108,#207,.T.);
#99=PRESENTATION_STYLE_ASSIGNMENT((#208));
#100=ADVANCED_FACE('',(#209),#210,.T.);
#101=PRESENTATION_STYLE_ASSIGNMENT((#211));
#102=ADVANCED_FACE('',(#212),#213,.T.);
#103=PRESENTATION_STYLE_ASSIGNMENT((#214));
#104=ADVANCED_FACE('',(#215),#216,.T.);
#105=PRESENTATION_STYLE_ASSIGNMENT((#217));
#106=ADVANCED_FACE('',(#218),#219,.T.);
#107=PRESENTATION_STYLE_ASSIGNMENT((#220));
#108=VERTEX_POINT('',#221);
#109=PRESENTATION_STYLE_ASSIGNMENT((#222));
#110=EDGE_CURVE('',#136,#68,#223,.T.);
#111=PRESENTATION_STYLE_ASSIGNMENT((#224));
#112=EDGE_CURVE('',#146,#154,#225,.T.);
#113=PRESENTATION_STYLE_ASSIGNMENT((#226));
#114=VERTEX_POINT('',#227);
#115=PRESENTATION_STYLE_ASSIGNMENT((#228));
#116=EDGE_CURVE('',#114,#146,#229,.T.);
#117=PRESENTATION_STYLE_ASSIGNMENT((#230));
#118=ADVANCED_FACE('',(#231),#232,.T.);
#119=PRESENTATION_STYLE_ASSIGNMENT((#233));
#120=VERTEX_POINT('',#234);
#121=PRESENTATION_STYLE_ASSIGNMENT((#235));
#122=EDGE_CURVE('',#96,#108,#236,.T.);
#123=PRESENTATION_STYLE_ASSIGNMENT((#237));
#124=EDGE_CURVE('',#136,#142,#238,.T.);
#125=PRESENTATION_STYLE_ASSIGNMENT((#239));
#126=VERTEX_POINT('',#240);
#127=PRESENTATION_STYLE_ASSIGNMENT((#241));
#128=EDGE_CURVE('',#126,#84,#242,.T.);
#129=PRESENTATION_STYLE_ASSIGNMENT((#243));
#130=EDGE_CURVE('',#68,#84,#244,.T.);
#131=PRESENTATION_STYLE_ASSIGNMENT((#245));
#132=MANIFOLD_SOLID_BREP('1',#246);
#133=PRESENTATION_STYLE_ASSIGNMENT((#247));
#134=ADVANCED_FACE('',(#248),#249,.T.);
#135=PRESENTATION_STYLE_ASSIGNMENT((#250));
#136=VERTEX_POINT('',#251);
#137=PRESENTATION_STYLE_ASSIGNMENT((#252));
#138=ADVANCED_FACE('',(#253),#254,.T.);
#139=PRESENTATION_STYLE_ASSIGNMENT((#255));
#140=EDGE_CURVE('',#78,#126,#256,.T.);
#141=PRESENTATION_STYLE_ASSIGNMENT((#257));
#142=VERTEX_POINT('',#258);
#143=PRESENTATION_STYLE_ASSIGNMENT((#259));
#144=EDGE_CURVE('',#154,#146,#260,.T.);
#145=PRESENTATION_STYLE_ASSIGNMENT((#261));
#146=VERTEX_POINT('',#262);
#147=PRESENTATION_STYLE_ASSIGNMENT((#263));
#148=EDGE_CURVE('',#84,#142,#264,.T.);
#149=PRESENTATION_STYLE_ASSIGNMENT((#265));
#150=EDGE_CURVE('',#114,#96,#266,.T.);
#151=PRESENTATION_STYLE_ASSIGNMENT((#267));
#152=EDGE_CURVE('',#84,#68,#268,.T.);
#153=PRESENTATION_STYLE_ASSIGNMENT((#269));
#154=VERTEX_POINT('',#270);
#155=PRODUCT('1','1','PART-1-DESC',(#271));
#156=PRODUCT_DEFINITION('NONE','NONE',#272,#2);
#157=AXIS2_PLACEMENT_3D('',#273,#274,#275);
#160=LENGTH_MEASURE_WITH_UNIT(LENGTH_MEASURE(1.0),#276);
#163=DIMENSIONAL_EXPONENTS(1.0,0.0,0.0,0.0,0.0,0.0,0.0);
#165=DIMENSIONAL_EXPONENTS(0.0,0.0,0.0,0.0,0.0,0.0,0.0);
#171=POINT_STYLE(' ',#277,POSITIVE_LENGTH_MEASURE(1.0E-006),#278);
#172=CARTESIAN_POINT('',(25.0,2.07461905292181E-012,15.0));
#173=SURFACE_STYLE_USAGE(.BOTH.,#279);
#174=FACE_OUTER_BOUND('',#280,.T.);
#175=PLANE('',#281);
#176=CURVE_STYLE('',#282,POSITIVE_LENGTH_MEASURE(1.0E-006),#283);
#177=CIRCLE('',#284,6.00000000000003);
#178=CURVE_STYLE('',#285,POSITIVE_LENGTH_MEASURE(1.0E-006),#286);
#179=LINE('',#287,#288);
#180=SURFACE_STYLE_USAGE(.BOTH.,#289);
#181=FACE_OUTER_BOUND('',#290,.T.);
#182=FACE_BOUND('',#291,.T.);
#183=PLANE('',#292);
#184=POINT_STYLE(' ',#293,POSITIVE_LENGTH_MEASURE(1.0E-006),#294);
#185=CARTESIAN_POINT('',(25.0,2.07461905292181E-012,0.0));
#186=CURVE_STYLE('',#295,POSITIVE_LENGTH_MEASURE(1.0E-006),#296);
#187=LINE('',#297,#298);
#188=CURVE_STYLE('',#299,POSITIVE_LENGTH_MEASURE(1.0E-006),#300);
#189=CIRCLE('',#301,7.00000000000003);
#190=POINT_STYLE(' ',#302,POSITIVE_LENGTH_MEASURE(1.0E-006),#303);
#191=CARTESIAN_POINT('',(-25.0,7.21786442133429E-015,15.0));
#192=SURFACE_STYLE_USAGE(.BOTH.,#304);
#193=FACE_OUTER_BOUND('',#305,.T.);
#194=CYLINDRICAL_SURFACE('',#306,25.0);
#195=CURVE_STYLE('',#307,POSITIVE_LENGTH_MEASURE(1.0E-006),#308);
#196=CIRCLE('',#309,24.0);
#197=SURFACE_STYLE_USAGE(.BOTH.,#310);
#198=FACE_OUTER_BOUND('',#311,.T.);
#199=CONICAL_SURFACE('',#312,6.50000000000003,0.785398163397448);
#200=CURVE_STYLE('',#313,POSITIVE_LENGTH_MEASURE(1.0E-006),#314);
#201=CIRCLE('',#315,25.0);
#202=CURVE_STYLE('',#316,POSITIVE_LENGTH_MEASURE(1.0E-006),#317);
#203=LINE('',#318,#319);
#204=POINT_STYLE(' ',#320,POSITIVE_LENGTH_MEASURE(1.0E-006),#321);
#205=CARTESIAN_POINT('',(7.00000000000003,5.85605253085355E-013,-23.0));
#206=CURVE_STYLE('',#322,POSITIVE_LENGTH_MEASURE(1.0E-006),#323);
#207=CIRCLE('',#324,6.00000000000003);
#208=SURFACE_STYLE_USAGE(.BOTH.,#325);
#209=FACE_OUTER_BOUND('',#326,.T.);
#210=CONICAL_SURFACE('',#327,24.5,0.785398163397448);
#211=SURFACE_STYLE_USAGE(.BOTH.,#328);
#212=FACE_OUTER_BOUND('',#329,.T.);
#213=PLANE('',#330);
#214=SURFACE_STYLE_USAGE(.BOTH.,#331);
#215=FACE_OUTER_BOUND('',#332,.T.);
#216=CYLINDRICAL_SURFACE('',#333,25.0);
#217=SURFACE_STYLE_USAGE(.BOTH.,#334);
#218=FACE_OUTER_BOUND('',#335,.T.);
#219=CONICAL_SURFACE('',#336,6.50000000000003,0.785398163397448);
#220=POINT_STYLE(' ',#337,POSITIVE_LENGTH_MEASURE(1.0E-006),#338);
#221=CARTESIAN_POINT('',(6.00000000000003,5.02882264205552E-013,-24.0));
#222=CURVE_STYLE('',#339,POSITIVE_LENGTH_MEASURE(1.0E-006),#340);
#223=LINE('',#341,#342);
#224=CURVE_STYLE('',#343,POSITIVE_LENGTH_MEASURE(1.0E-006),#344);
#225=CIRCLE('',#345,7.00000000000003);
#226=POINT_STYLE(' ',#346,POSITIVE_LENGTH_MEASURE(1.0E-006),#347);
#227=CARTESIAN_POINT('',(-7.00000000000003,7.34032505671653E-015,-23.0));
#228=CURVE_STYLE('',#348,POSITIVE_LENGTH_MEASURE(1.0E-006),#349);
#229=LINE('',#350,#351);
#230=SURFACE_STYLE_USAGE(.BOTH.,#352);
#231=FACE_OUTER_BOUND('',#353,.T.);
#232=CYLINDRICAL_SURFACE('',#354,7.00000000000003);
#233=POINT_STYLE(' ',#355,POSITIVE_LENGTH_MEASURE(1.0E-006),#356);
#234=CARTESIAN_POINT('',(-6.00000000000003,7.27909473902541E-015,-24.0));
#235=CURVE_STYLE('',#357,POSITIVE_LENGTH_MEASURE(1.0E-006),#358);
#236=LINE('',#359,#360);
#237=CURVE_STYLE('',#361,POSITIVE_LENGTH_MEASURE(1.0E-006),#362);
#238=CIRCLE('',#363,24.0);
#239=POINT_STYLE(' ',#364,POSITIVE_LENGTH_MEASURE(1.0E-006),#365);
#240=CARTESIAN_POINT('',(-25.0,8.13631918670107E-015,0.0));
#241=CURVE_STYLE('',#366,POSITIVE_LENGTH_MEASURE(1.0E-006),#367);
#242=LINE('',#368,#369);
#243=CURVE_STYLE('',#370,POSITIVE_LENGTH_MEASURE(1.0E-006),#371);
#244=CIRCLE('',#372,25.0);
#245=SURFACE_STYLE_USAGE(.BOTH.,#373);
#246=CLOSED_SHELL('',(#100,#104,#138,#106,#102,#90,#118,#76,#86,#134,#70));
#247=SURFACE_STYLE_USAGE(.BOTH.,#374);
#248=FACE_OUTER_BOUND('',#375,.T.);
#249=CONICAL_SURFACE('',#376,24.5,0.785398163397448);
#250=POINT_STYLE(' ',#377,POSITIVE_LENGTH_MEASURE(1.0E-006),#378);
#251=CARTESIAN_POINT('',(24.0,1.99189606404201E-012,16.0));
#252=SURFACE_STYLE_USAGE(.BOTH.,#379);
#253=FACE_OUTER_BOUND('',#380,.T.);
#254=CYLINDRICAL_SURFACE('',#381,7.00000000000003);
#255=CURVE_STYLE('',#382,POSITIVE_LENGTH_MEASURE(1.0E-006),#383);
#256=CIRCLE('',#384,25.0);
#257=POINT_STYLE(' ',#385,POSITIVE_LENGTH_MEASURE(1.0E-006),#386);
#258=CARTESIAN_POINT('',(-24.0,7.03417346826093E-015,16.0));
#259=CURVE_STYLE('',#387,POSITIVE_LENGTH_MEASURE(1.0E-006),#388);
#260=CIRCLE('',#389,7.00000000000003);
#261=POINT_STYLE(' ',#390,POSITIVE_LENGTH_MEASURE(1.0E-006),#391);
#262=CARTESIAN_POINT('',(-7.00000000000003,5.9320277498208E-015,0.0));
#263=CURVE_STYLE('',#392,POSITIVE_LENGTH_MEASURE(1.0E-006),#393);
#264=LINE('',#394,#395);
#265=CURVE_STYLE('',#396,POSITIVE_LENGTH_MEASURE(1.0E-006),#397);
#266=CIRCLE('',#398,7.00000000000003);
#267=CURVE_STYLE('',#399,POSITIVE_LENGTH_MEASURE(1.0E-006),#400);
#268=CIRCLE('',#401,25.0);
#269=POINT_STYLE(' ',#402,POSITIVE_LENGTH_MEASURE(1.0E-006),#403);
#270=CARTESIAN_POINT('',(7.00000000000003,5.85605253085355E-013,0.0));
#271=PRODUCT_CONTEXT('',#54,'mechanical');
#272=PRODUCT_DEFINITION_FORMATION_WITH_SPECIFIED_SOURCE(' ','NONE',#155,.NOT_KNOWN.);
#273=CARTESIAN_POINT('',(0.0,0.0,0.0));
#274=DIRECTION('',(0.0,0.0,1.0));
#275=DIRECTION('',(1.0,0.0,0.0));
#276= (NAMED_UNIT(#163)LENGTH_UNIT()SI_UNIT(.MILLI.,.METRE.));
#277=PRE_DEFINED_MARKER('');
#278=COLOUR_RGB('',0.509803950786591,0.509803950786591,0.588235318660736);
#279=SURFACE_SIDE_STYLE('',(#405));
#280=EDGE_LOOP('',(#406,#407));
#281=AXIS2_PLACEMENT_3D('',#408,#409,#410);
#282=DRAUGHTING_PRE_DEFINED_CURVE_FONT('continuous');
#283=COLOUR_RGB('',0.509803950786591,0.509803950786591,0.588235318660736);
#284=AXIS2_PLACEMENT_3D('',#411,#412,#413);
#285=DRAUGHTING_PRE_DEFINED_CURVE_FONT('continuous');
#286=COLOUR_RGB('',0.509803950786591,0.509803950786591,0.588235318660736);
#287=CARTESIAN_POINT('',(-6.50000000000003,-5.3115509679199E-013,-23.5));
#288=VECTOR('',#414,1.0);
#289=SURFACE_SIDE_STYLE('',(#415));
#290=EDGE_LOOP('',(#416,#417));
#291=EDGE_LOOP('',(#418,#419));
#292=AXIS2_PLACEMENT_3D('',#420,#421,#422);
#293=PRE_DEFINED_MARKER('');
#294=COLOUR_RGB('',0.509803950786591,0.509803950786591,0.588235318660736);
#295=DRAUGHTING_PRE_DEFINED_CURVE_FONT('continuous');
#296=COLOUR_RGB('',0.509803950786591,0.509803950786591,0.588235318660736);
#297=CARTESIAN_POINT('',(7.00000000000003,5.85605253085355E-013,-11.5));
#298=VECTOR('',#423,1.0);
#299=DRAUGHTING_PRE_DEFINED_CURVE_FONT('continuous');
#300=COLOUR_RGB('',0.509803950786591,0.509803950786591,0.588235318660736);
#301=AXIS2_PLACEMENT_3D('',#424,#425,#426);
#302=PRE_DEFINED_MARKER('');
#303=COLOUR_RGB('',0.509803950786591,0.509803950786591,0.588235318660736);
#304=SURFACE_SIDE_STYLE('',(#427));
#305=EDGE_LOOP('',(#428,#429,#430,#431));
#306=AXIS2_PLACEMENT_3D('',#432,#433,#434);
#307=DRAUGHTING_PRE_DEFINED_CURVE_FONT('continuous');
#308=COLOUR_RGB('',0.509803950786591,0.509803950786591,0.588235318660736);
#309=AXIS2_PLACEMENT_3D('',#435,#436,#437);
#310=SURFACE_SIDE_STYLE('',(#438));
#311=EDGE_LOOP('',(#439,#440,#441,#442));
#312=AXIS2_PLACEMENT_3D('',#443,#444,#445);
#313=DRAUGHTING_PRE_DEFINED_CURVE_FONT('continuous');
#314=COLOUR_RGB('',0.509803950786591,0.509803950786591,0.588235318660736);
#315=AXIS2_PLACEMENT_3D('',#446,#447,#448);
#316=DRAUGHTING_PRE_DEFINED_CURVE_FONT('continuous');
#317=COLOUR_RGB('',0.509803950786591,0.509803950786591,0.588235318660736);
#318=CARTESIAN_POINT('',(25.0,2.07461905292181E-012,7.5));
#319=VECTOR('',#449,1.0);
#320=PRE_DEFINED_MARKER('');
#321=COLOUR_RGB('',0.509803950786591,0.509803950786591,0.588235318660736);
#322=DRAUGHTING_PRE_DEFINED_CURVE_FONT('continuous');
#323=COLOUR_RGB('',0.509803950786591,0.509803950786591,0.588235318660736);
#324=AXIS2_PLACEMENT_3D('',#450,#451,#452);
#325=SURFACE_SIDE_STYLE('',(#453));
#326=EDGE_LOOP('',(#454,#455,#456,#457));
#327=AXIS2_PLACEMENT_3D('',#458,#459,#460);
#328=SURFACE_SIDE_STYLE('',(#461));
#329=EDGE_LOOP('',(#462,#463));
#330=AXIS2_PLACEMENT_3D('',#464,#465,#466);
#331=SURFACE_SIDE_STYLE('',(#467));
#332=EDGE_LOOP('',(#468,#469,#470,#471));
#333=AXIS2_PLACEMENT_3D('',#472,#473,#474);
#334=SURFACE_SIDE_STYLE('',(#475));
#335=EDGE_LOOP('',(#476,#477,#478,#479));
#336=AXIS2_PLACEMENT_3D('',#480,#481,#482);
#337=PRE_DEFINED_MARKER('');
#338=COLOUR_RGB('',0.509803950786591,0.509803950786591,0.588235318660736);
#339=DRAUGHTING_PRE_DEFINED_CURVE_FONT('continuous');
#340=COLOUR_RGB('',0.509803950786591,0.509803950786591,0.588235318660736);
#341=CARTESIAN_POINT('',(24.5,2.03325755848191E-012,15.5));
#342=VECTOR('',#483,1.0);
#343=DRAUGHTING_PRE_DEFINED_CURVE_FONT('continuous');
#344=COLOUR_RGB('',0.509803950786591,0.509803950786591,0.588235318660736);
#345=AXIS2_PLACEMENT_3D('',#484,#485,#486);
#346=PRE_DEFINED_MARKER('');
#347=COLOUR_RGB('',0.509803950786591,0.509803950786591,0.588235318660736);
#348=DRAUGHTING_PRE_DEFINED_CURVE_FONT('continuous');
#349=COLOUR_RGB('',0.509803950786591,0.509803950786591,0.588235318660736);
#350=CARTESIAN_POINT('',(-7.00000000000003,-5.72516591231891E-013,-11.5));
#351=VECTOR('',#487,1.0);
#352=SURFACE_SIDE_STYLE('',(#488));
#353=EDGE_LOOP('',(#489,#490,#491,#492));
#354=AXIS2_PLACEMENT_3D('',#493,#494,#495);
#355=PRE_DEFINED_MARKER('');
#356=COLOUR_RGB('',0.509803950786591,0.509803950786591,0.588235318660736);
#357=DRAUGHTING_PRE_DEFINED_CURVE_FONT('continuous');
#358=COLOUR_RGB('',0.509803950786591,0.509803950786591,0.588235318660736);
#359=CARTESIAN_POINT('',(6.50000000000003,5.44243758645454E-013,-23.5));
#360=VECTOR('',#496,1.0);
#361=DRAUGHTING_PRE_DEFINED_CURVE_FONT('continuous');
#362=COLOUR_RGB('',0.509803950786591,0.509803950786591,0.588235318660736);
#363=AXIS2_PLACEMENT_3D('',#497,#498,#499);
#364=PRE_DEFINED_MARKER('');
#365=COLOUR_RGB('',0.509803950786591,0.509803950786591,0.588235318660736);
#366=DRAUGHTING_PRE_DEFINED_CURVE_FONT('continuous');
#367=COLOUR_RGB('',0.509803950786591,0.509803950786591,0.588235318660736);
#368=CARTESIAN_POINT('',(-25.0,-2.06153039106835E-012,7.5));
#369=VECTOR('',#500,1.0);
#370=DRAUGHTING_PRE_DEFINED_CURVE_FONT('continuous');
#371=COLOUR_RGB('',0.509803950786591,0.509803950786591,0.588235318660736);
#372=AXIS2_PLACEMENT_3D('',#501,#502,#503);
#373=SURFACE_SIDE_STYLE('',(#504));
#374=SURFACE_SIDE_STYLE('',(#505));
#375=EDGE_LOOP('',(#506,#507,#508,#509));
#376=AXIS2_PLACEMENT_3D('',#510,#511,#512);
#377=PRE_DEFINED_MARKER('');
#378=COLOUR_RGB('',0.509803950786591,0.509803950786591,0.588235318660736);
#379=SURFACE_SIDE_STYLE('',(#513));
#380=EDGE_LOOP('',(#514,#515,#516,#517));
#381=AXIS2_PLACEMENT_3D('',#518,#519,#520);
#382=DRAUGHTING_PRE_DEFINED_CURVE_FONT('continuous');
#383=COLOUR_RGB('',0.509803950786591,0.509803950786591,0.588235318660736);
#384=AXIS2_PLACEMENT_3D('',#521,#522,#523);
#385=PRE_DEFINED_MARKER('');
#386=COLOUR_RGB('',0.509803950786591,0.509803950786591,0.588235318660736);
#387=DRAUGHTING_PRE_DEFINED_CURVE_FONT('continuous');
#388=COLOUR_RGB('',0.509803950786591,0.509803950786591,0.588235318660736);
#389=AXIS2_PLACEMENT_3D('',#524,#525,#526);
#390=PRE_DEFINED_MARKER('');
#391=COLOUR_RGB('',0.509803950786591,0.509803950786591,0.588235318660736);
#392=DRAUGHTING_PRE_DEFINED_CURVE_FONT('continuous');
#393=COLOUR_RGB('',0.509803950786591,0.509803950786591,0.588235318660736);
#394=CARTESIAN_POINT('',(-24.5,-2.02016889662844E-012,15.5));
#395=VECTOR('',#527,1.0);
#396=DRAUGHTING_PRE_DEFINED_CURVE_FONT('continuous');
#397=COLOUR_RGB('',0.509803950786591,0.509803950786591,0.588235318660736);
#398=AXIS2_PLACEMENT_3D('',#528,#529,#530);
#399=DRAUGHTING_PRE_DEFINED_CURVE_FONT('continuous');
#400=COLOUR_RGB('',0.509803950786591,0.509803950786591,0.588235318660736);
#401=AXIS2_PLACEMENT_3D('',#531,#532,#533);
#402=PRE_DEFINED_MARKER('');
#403=COLOUR_RGB('',0.509803950786591,0.509803950786591,0.588235318660736);
#405=SURFACE_STYLE_FILL_AREA(#534);
#406=ORIENTED_EDGE('',*,*,#88,.T.);
#407=ORIENTED_EDGE('',*,*,#124,.T.);
#408=CARTESIAN_POINT('',(-12.0,5.56464584367408E-015,16.0));
#409=DIRECTION('',(0.0,0.0,1.0));
#410=DIRECTION('',(-1.0,1.22460635382238E-016,0.0));
#411=CARTESIAN_POINT('',(0.0,6.54433092673198E-015,-24.0));
#412=DIRECTION('',(0.0,0.0,1.0));
#413=DIRECTION('',(-1.0,-8.28454495151852E-014,0.0));
#414=DIRECTION('',(-0.707106781186548,-5.84939863969281E-014,0.707106781186547));
#415=SURFACE_STYLE_FILL_AREA(#535);
#416=ORIENTED_EDGE('',*,*,#92,.F.);
#417=ORIENTED_EDGE('',*,*,#140,.F.);
#418=ORIENTED_EDGE('',*,*,#112,.T.);
#419=ORIENTED_EDGE('',*,*,#144,.T.);
#420=CARTESIAN_POINT('',(-16.0,7.03417346826093E-015,0.0));
#421=DIRECTION('',(0.0,0.0,-1.0));
#422=DIRECTION('',(1.0,-1.22460635382238E-016,0.0));
#423=DIRECTION('',(-0.0,-0.0,-1.0));
#424=CARTESIAN_POINT('',(0.0,6.54433092673198E-015,-23.0));
#425=DIRECTION('',(0.0,0.0,1.0));
#426=DIRECTION('',(-1.0,-8.28454495151852E-014,0.0));
#427=SURFACE_STYLE_FILL_AREA(#536);
#428=ORIENTED_EDGE('',*,*,#128,.T.);
#429=ORIENTED_EDGE('',*,*,#130,.F.);
#430=ORIENTED_EDGE('',*,*,#94,.T.);
#431=ORIENTED_EDGE('',*,*,#140,.T.);
#432=CARTESIAN_POINT('',(0.0,6.54433092673198E-015,7.5));
#433=DIRECTION('',(-0.0,-0.0,-1.0));
#434=DIRECTION('',(-1.0,-8.28454495151852E-014,0.0));
#435=CARTESIAN_POINT('',(0.0,6.54433092673198E-015,16.0));
#436=DIRECTION('',(0.0,0.0,1.0));
#437=DIRECTION('',(-1.0,-8.28454495151852E-014,0.0));
#438=SURFACE_STYLE_FILL_AREA(#537);
#439=ORIENTED_EDGE('',*,*,#74,.T.);
#440=ORIENTED_EDGE('',*,*,#82,.F.);
#441=ORIENTED_EDGE('',*,*,#122,.T.);
#442=ORIENTED_EDGE('',*,*,#72,.T.);
#443=CARTESIAN_POINT('',(0.0,6.54433092673198E-015,-23.5));
#444=DIRECTION('',(-0.0,0.0,1.0));
#445=DIRECTION('',(-1.0,-8.28454495151852E-014,0.0));
#446=CARTESIAN_POINT('',(0.0,6.54433092673198E-015,0.0));
#447=DIRECTION('',(0.0,0.0,1.0));
#448=DIRECTION('',(-1.0,-8.28454495151852E-014,0.0));
#449=DIRECTION('',(-0.0,-0.0,-1.0));
#450=CARTESIAN_POINT('',(0.0,6.54433092673198E-015,-24.0));
#451=DIRECTION('',(0.0,0.0,1.0));
#452=DIRECTION('',(-1.0,-8.28454495151852E-014,0.0));
#453=SURFACE_STYLE_FILL_AREA(#538);
#454=ORIENTED_EDGE('',*,*,#148,.F.);
#455=ORIENTED_EDGE('',*,*,#152,.T.);
#456=ORIENTED_EDGE('',*,*,#110,.F.);
#457=ORIENTED_EDGE('',*,*,#88,.F.);
#458=CARTESIAN_POINT('',(0.0,6.54433092673198E-015,15.5));
#459=DIRECTION('',(-0.0,-0.0,-1.0));
#460=DIRECTION('',(-1.0,-8.28454495151852E-014,0.0));
#461=SURFACE_STYLE_FILL_AREA(#539);
#462=ORIENTED_EDGE('',*,*,#98,.F.);
#463=ORIENTED_EDGE('',*,*,#72,.F.);
#464=CARTESIAN_POINT('',(-3.00000000000001,6.9117128328787E-015,-24.0));
#465=DIRECTION('',(0.0,0.0,-1.0));
#466=DIRECTION('',(1.0,-1.22460635382238E-016,0.0));
#467=SURFACE_STYLE_FILL_AREA(#540);
#468=ORIENTED_EDGE('',*,*,#128,.F.);
#469=ORIENTED_EDGE('',*,*,#92,.T.);
#470=ORIENTED_EDGE('',*,*,#94,.F.);
#471=ORIENTED_EDGE('',*,*,#152,.F.);
#472=CARTESIAN_POINT('',(0.0,6.54433092673198E-015,7.5));
#473=DIRECTION('',(-0.0,-0.0,-1.0));
#474=DIRECTION('',(-1.0,-8.28454495151852E-014,0.0));
#475=SURFACE_STYLE_FILL_AREA(#541);
#476=ORIENTED_EDGE('',*,*,#74,.F.);
#477=ORIENTED_EDGE('',*,*,#98,.T.);
#478=ORIENTED_EDGE('',*,*,#122,.F.);
#479=ORIENTED_EDGE('',*,*,#150,.F.);
#480=CARTESIAN_POINT('',(0.0,6.54433092673198E-015,-23.5));
#481=DIRECTION('',(-0.0,0.0,1.0));
#482=DIRECTION('',(-1.0,-8.28454495151852E-014,0.0));
#483=DIRECTION('',(0.707106781186548,5.84939863969281E-014,-0.707106781186547));
#484=CARTESIAN_POINT('',(0.0,6.54433092673198E-015,0.0));
#485=DIRECTION('',(0.0,0.0,1.0));
#486=DIRECTION('',(-1.0,-8.28454495151852E-014,0.0));
#487=DIRECTION('',(0.0,0.0,1.0));
#488=SURFACE_STYLE_FILL_AREA(#542);
#489=ORIENTED_EDGE('',*,*,#116,.T.);
#490=ORIENTED_EDGE('',*,*,#144,.F.);
#491=ORIENTED_EDGE('',*,*,#80,.T.);
#492=ORIENTED_EDGE('',*,*,#82,.T.);
#493=CARTESIAN_POINT('',(0.0,6.54433092673198E-015,-11.5));
#494=DIRECTION('',(-0.0,-0.0,-1.0));
#495=DIRECTION('',(-1.0,-8.28454495151852E-014,0.0));
#496=DIRECTION('',(-0.707106781186548,-5.84939863969281E-014,-0.707106781186547));
#497=CARTESIAN_POINT('',(0.0,6.54433092673198E-015,16.0));
#498=DIRECTION('',(0.0,0.0,1.0));
#499=DIRECTION('',(-1.0,-8.28454495151852E-014,0.0));
#500=DIRECTION('',(0.0,0.0,1.0));
#501=CARTESIAN_POINT('',(0.0,6.54433092673198E-015,15.0));
#502=DIRECTION('',(0.0,0.0,1.0));
#503=DIRECTION('',(-1.0,-8.28454495151852E-014,0.0));
#504=SURFACE_STYLE_FILL_AREA(#543);
#505=SURFACE_STYLE_FILL_AREA(#544);
#506=ORIENTED_EDGE('',*,*,#148,.T.);
#507=ORIENTED_EDGE('',*,*,#124,.F.);
#508=ORIENTED_EDGE('',*,*,#110,.T.);
#509=ORIENTED_EDGE('',*,*,#130,.T.);
#510=CARTESIAN_POINT('',(0.0,6.54433092673198E-015,15.5));
#511=DIRECTION('',(-0.0,-0.0,-1.0));
#512=DIRECTION('',(-1.0,-8.28454495151852E-014,0.0));
#513=SURFACE_STYLE_FILL_AREA(#545);
#514=ORIENTED_EDGE('',*,*,#116,.F.);
#515=ORIENTED_EDGE('',*,*,#150,.T.);
#516=ORIENTED_EDGE('',*,*,#80,.F.);
#517=ORIENTED_EDGE('',*,*,#112,.F.);
#518=CARTESIAN_POINT('',(0.0,6.54433092673198E-015,-11.5));
#519=DIRECTION('',(-0.0,-0.0,-1.0));
#520=DIRECTION('',(-1.0,-8.28454495151852E-014,0.0));
#521=CARTESIAN_POINT('',(0.0,6.54433092673198E-015,0.0));
#522=DIRECTION('',(0.0,0.0,1.0));
#523=DIRECTION('',(-1.0,-8.28454495151852E-014,0.0));
#524=CARTESIAN_POINT('',(0.0,6.54433092673198E-015,0.0));
#525=DIRECTION('',(0.0,0.0,1.0));
#526=DIRECTION('',(-1.0,-8.28454495151852E-014,0.0));
#527=DIRECTION('',(0.707106781186548,5.84939863969281E-014,0.707106781186547));
#528=CARTESIAN_POINT('',(0.0,6.54433092673198E-015,-23.0));
#529=DIRECTION('',(0.0,0.0,1.0));
#530=DIRECTION('',(-1.0,-8.28454495151852E-014,0.0));
#531=CARTESIAN_POINT('',(0.0,6.54433092673198E-015,15.0));
#532=DIRECTION('',(0.0,0.0,1.0));
#533=DIRECTION('',(-1.0,-8.28454495151852E-014,0.0));
#534=FILL_AREA_STYLE('',(#546));
#535=FILL_AREA_STYLE('',(#547));
#536=FILL_AREA_STYLE('',(#548));
#537=FILL_AREA_STYLE('',(#549));
#538=FILL_AREA_STYLE('',(#550));
#539=FILL_AREA_STYLE('',(#551));
#540=FILL_AREA_STYLE('',(#552));
#541=FILL_AREA_STYLE('',(#553));
#542=FILL_AREA_STYLE('',(#554));
#543=FILL_AREA_STYLE('',(#555));
#544=FILL_AREA_STYLE('',(#556));
#545=FILL_AREA_STYLE('',(#557));
#546=FILL_AREA_STYLE_COLOUR('',#558);
#547=FILL_AREA_STYLE_COLOUR('',#559);
#548=FILL_AREA_STYLE_COLOUR('',#560);
#549=FILL_AREA_STYLE_COLOUR('',#561);
#550=FILL_AREA_STYLE_COLOUR('',#562);
#551=FILL_AREA_STYLE_COLOUR('',#563);
#552=FILL_AREA_STYLE_COLOUR('',#564);
#553=FILL_AREA_STYLE_COLOUR('',#565);
#554=FILL_AREA_STYLE_COLOUR('',#566);
#555=FILL_AREA_STYLE_COLOUR('',#567);
#556=FILL_AREA_STYLE_COLOUR('',#568);
#557=FILL_AREA_STYLE_COLOUR('',#569);
#558=COLOUR_RGB('',0.509803950786591,0.509803950786591,0.588235318660736);
#559=COLOUR_RGB('',0.509803950786591,0.509803950786591,0.588235318660736);
#560=COLOUR_RGB('',0.509803950786591,0.509803950786591,0.588235318660736);
#561=COLOUR_RGB('',0.509803950786591,0.509803950786591,0.588235318660736);
#562=COLOUR_RGB('',0.509803950786591,0.509803950786591,0.588235318660736);
#563=COLOUR_RGB('',0.509803950786591,0.509803950786591,0.588235318660736);
#564=COLOUR_RGB('',0.509803950786591,0.509803950786591,0.588235318660736);
#565=COLOUR_RGB('',0.509803950786591,0.509803950786591,0.588235318660736);
#566=COLOUR_RGB('',0.509803950786591,0.509803950786591,0.588235318660736);
#567=COLOUR_RGB('',0.509803950786591,0.509803950786591,0.588235318660736);
#568=COLOUR_RGB('',0.509803950786591,0.509803950786591,0.588235318660736);
#569=COLOUR_RGB('',0.509803950786591,0.509803950786591,0.588235318660736);
ENDSEC;
END-ISO-10303-21;
