ISO-10303-21;
HEADER;
FILE_DESCRIPTION(('STEP AP214'),'1');
FILE_NAME(' ','  ',('TraceParts'),('TraceParts S.A.'),'XStep 1.0',' ',' ');
FILE_SCHEMA(('automotive_design'));
ENDSEC;
DATA;
#1=MECHANICAL_DESIGN_GEOMETRIC_PRESENTATION_REPRESENTATION(' ',(#10,#11,#12,#13,#14,#15,#16,#17,#18,#19,#20,#21,#22,#23,#24,#25,#26,#27,#28,#29,#30,#31,#32,#33,#34,#35,#36,#37,#38,#39,#40,#41,#42,#43,#44,#45,#46,#47,#48,#49,#50,#51,#52,#53),#6);
#2=PRODUCT_DEFINITION_CONTEXT('',#54,'design');
#3=APPLICATION_PROTOCOL_DEFINITION('INTERNATIONAL STANDARD','automotive_design',1994,#54);
#4=PRODUCT_CATEGORY_RELATIONSHIP('NONE','NONE',#55,#56);
#5=SHAPE_DEFINITION_REPRESENTATION(#57,#58);
#6= (GEOMETRIC_REPRESENTATION_CONTEXT(3)GLOBAL_UNCERTAINTY_ASSIGNED_CONTEXT((#61))GLOBAL_UNIT_ASSIGNED_CONTEXT((#63,#64,#65))REPRESENTATION_CONTEXT('NONE','WORKSPACE'));
#10=STYLED_ITEM('',(#67),#68);
#11=STYLED_ITEM('',(#69),#70);
#12=STYLED_ITEM('',(#71),#72);
#13=STYLED_ITEM('',(#73),#74);
#14=STYLED_ITEM('',(#75),#76);
#15=STYLED_ITEM('',(#77),#78);
#16=STYLED_ITEM('',(#79),#80);
#17=STYLED_ITEM('',(#81),#82);
#18=STYLED_ITEM('',(#83),#84);
#19=STYLED_ITEM('',(#85),#86);
#20=STYLED_ITEM('',(#87),#88);
#21=STYLED_ITEM('',(#89),#90);
#22=STYLED_ITEM('',(#91),#92);
#23=STYLED_ITEM('',(#93),#94);
#24=STYLED_ITEM('',(#95),#96);
#25=STYLED_ITEM('',(#97),#98);
#26=STYLED_ITEM('',(#99),#100);
#27=STYLED_ITEM('',(#101),#102);
#28=STYLED_ITEM('',(#103),#104);
#29=STYLED_ITEM('',(#105),#106);
#30=STYLED_ITEM('',(#107),#108);
#31=STYLED_ITEM('',(#109),#110);
#32=STYLED_ITEM('',(#111),#112);
#33=STYLED_ITEM('',(#113),#114);
#34=STYLED_ITEM('',(#115),#116);
#35=STYLED_ITEM('',(#117),#118);
#36=STYLED_ITEM('',(#119),#120);
#37=STYLED_ITEM('',(#121),#122);
#38=STYLED_ITEM('',(#123),#124);
#39=STYLED_ITEM('',(#125),#126);
#40=STYLED_ITEM('',(#127),#128);
#41=STYLED_ITEM('',(#129),#130);
#42=STYLED_ITEM('',(#131),#132);
#43=STYLED_ITEM('',(#133),#134);
#44=STYLED_ITEM('',(#135),#136);
#45=STYLED_ITEM('',(#137),#138);
#46=STYLED_ITEM('',(#139),#140);
#47=STYLED_ITEM('',(#141),#142);
#48=STYLED_ITEM('',(#143),#144);
#49=STYLED_ITEM('',(#145),#146);
#50=STYLED_ITEM('',(#147),#148);
#51=STYLED_ITEM('',(#149),#150);
#52=STYLED_ITEM('',(#151),#152);
#53=STYLED_ITEM('',(#153),#154);
#54=APPLICATION_CONTEXT(' ');
#55=PRODUCT_CATEGORY('part','NONE');
#56=PRODUCT_RELATED_PRODUCT_CATEGORY('detail',' ',(#155));
#57=PRODUCT_DEFINITION_SHAPE('NONE','NONE',#156);
#58=ADVANCED_BREP_SHAPE_REPRESENTATION('1',(#120,#157),#6);
#61=UNCERTAINTY_MEASURE_WITH_UNIT(LENGTH_MEASURE(1.0E-006),#63,'','');
#63= (CONVERSION_BASED_UNIT('MILLIMETRE',#160)LENGTH_UNIT()NAMED_UNIT(#163));
#64= (NAMED_UNIT(#165)PLANE_ANGLE_UNIT()SI_UNIT($,.RADIAN.));
#65= (NAMED_UNIT(#165)SOLID_ANGLE_UNIT()SI_UNIT($,.STERADIAN.));
#67=PRESENTATION_STYLE_ASSIGNMENT((#171));
#68=VERTEX_POINT('',#172);
#69=PRESENTATION_STYLE_ASSIGNMENT((#173));
#70=EDGE_CURVE('',#110,#144,#174,.T.);
#71=PRESENTATION_STYLE_ASSIGNMENT((#175));
#72=VERTEX_POINT('',#176);
#73=PRESENTATION_STYLE_ASSIGNMENT((#177));
#74=EDGE_CURVE('',#138,#118,#178,.T.);
#75=PRESENTATION_STYLE_ASSIGNMENT((#179));
#76=EDGE_CURVE('',#80,#142,#180,.T.);
#77=PRESENTATION_STYLE_ASSIGNMENT((#181));
#78=ADVANCED_FACE('',(#182),#183,.T.);
#79=PRESENTATION_STYLE_ASSIGNMENT((#184));
#80=VERTEX_POINT('',#185);
#81=PRESENTATION_STYLE_ASSIGNMENT((#186));
#82=EDGE_CURVE('',#102,#104,#187,.T.);
#83=PRESENTATION_STYLE_ASSIGNMENT((#188));
#84=EDGE_CURVE('',#126,#68,#189,.T.);
#85=PRESENTATION_STYLE_ASSIGNMENT((#190));
#86=ADVANCED_FACE('',(#191),#192,.T.);
#87=PRESENTATION_STYLE_ASSIGNMENT((#193));
#88=EDGE_CURVE('',#102,#110,#194,.T.);
#89=PRESENTATION_STYLE_ASSIGNMENT((#195));
#90=EDGE_CURVE('',#104,#102,#196,.T.);
#91=PRESENTATION_STYLE_ASSIGNMENT((#197));
#92=EDGE_CURVE('',#110,#138,#198,.T.);
#93=PRESENTATION_STYLE_ASSIGNMENT((#199));
#94=ADVANCED_FACE('',(#200),#201,.T.);
#95=PRESENTATION_STYLE_ASSIGNMENT((#202));
#96=EDGE_CURVE('',#72,#126,#203,.T.);
#97=PRESENTATION_STYLE_ASSIGNMENT((#204));
#98=EDGE_CURVE('',#142,#124,#205,.T.);
#99=PRESENTATION_STYLE_ASSIGNMENT((#206));
#100=EDGE_CURVE('',#118,#144,#207,.T.);
#101=PRESENTATION_STYLE_ASSIGNMENT((#208));
#102=VERTEX_POINT('',#209);
#103=PRESENTATION_STYLE_ASSIGNMENT((#210));
#104=VERTEX_POINT('',#211);
#105=PRESENTATION_STYLE_ASSIGNMENT((#212));
#106=EDGE_CURVE('',#126,#72,#213,.T.);
#107=PRESENTATION_STYLE_ASSIGNMENT((#214));
#108=ADVANCED_FACE('',(#215),#216,.T.);
#109=PRESENTATION_STYLE_ASSIGNMENT((#217));
#110=VERTEX_POINT('',#218);
#111=PRESENTATION_STYLE_ASSIGNMENT((#219));
#112=ADVANCED_FACE('',(#220),#221,.T.);
#113=PRESENTATION_STYLE_ASSIGNMENT((#222));
#114=EDGE_CURVE('',#124,#72,#223,.T.);
#115=PRESENTATION_STYLE_ASSIGNMENT((#224));
#116=EDGE_CURVE('',#124,#68,#225,.T.);
#117=PRESENTATION_STYLE_ASSIGNMENT((#226));
#118=VERTEX_POINT('',#227);
#119=PRESENTATION_STYLE_ASSIGNMENT((#228));
#120=MANIFOLD_SOLID_BREP('1',#229);
#121=PRESENTATION_STYLE_ASSIGNMENT((#230));
#122=ADVANCED_FACE('',(#231),#232,.T.);
#123=PRESENTATION_STYLE_ASSIGNMENT((#233));
#124=VERTEX_POINT('',#234);
#125=PRESENTATION_STYLE_ASSIGNMENT((#235));
#126=VERTEX_POINT('',#236);
#127=PRESENTATION_STYLE_ASSIGNMENT((#237));
#128=ADVANCED_FACE('',(#238),#239,.T.);
#129=PRESENTATION_STYLE_ASSIGNMENT((#240));
#130=ADVANCED_FACE('',(#241),#242,.T.);
#131=PRESENTATION_STYLE_ASSIGNMENT((#243));
#132=ADVANCED_FACE('',(#244,#245),#246,.T.);
#133=PRESENTATION_STYLE_ASSIGNMENT((#247));
#134=EDGE_CURVE('',#144,#104,#248,.T.);
#135=PRESENTATION_STYLE_ASSIGNMENT((#249));
#136=EDGE_CURVE('',#144,#110,#250,.T.);
#137=PRESENTATION_STYLE_ASSIGNMENT((#251));
#138=VERTEX_POINT('',#252);
#139=PRESENTATION_STYLE_ASSIGNMENT((#253));
#140=ADVANCED_FACE('',(#254),#255,.T.);
#141=PRESENTATION_STYLE_ASSIGNMENT((#256));
#142=VERTEX_POINT('',#257);
#143=PRESENTATION_STYLE_ASSIGNMENT((#258));
#144=VERTEX_POINT('',#259);
#145=PRESENTATION_STYLE_ASSIGNMENT((#260));
#146=EDGE_CURVE('',#68,#124,#261,.T.);
#147=PRESENTATION_STYLE_ASSIGNMENT((#262));
#148=EDGE_CURVE('',#142,#80,#263,.T.);
#149=PRESENTATION_STYLE_ASSIGNMENT((#264));
#150=ADVANCED_FACE('',(#265),#266,.T.);
#151=PRESENTATION_STYLE_ASSIGNMENT((#267));
#152=EDGE_CURVE('',#68,#80,#268,.T.);
#153=PRESENTATION_STYLE_ASSIGNMENT((#269));
#154=EDGE_CURVE('',#118,#138,#270,.T.);
#155=PRODUCT('1','1','PART-1-DESC',(#271));
#156=PRODUCT_DEFINITION('NONE','NONE',#272,#2);
#157=AXIS2_PLACEMENT_3D('',#273,#274,#275);
#160=LENGTH_MEASURE_WITH_UNIT(LENGTH_MEASURE(1.0),#276);
#163=DIMENSIONAL_EXPONENTS(1.0,0.0,0.0,0.0,0.0,0.0,0.0);
#165=DIMENSIONAL_EXPONENTS(0.0,0.0,0.0,0.0,0.0,0.0,0.0);
#171=POINT_STYLE(' ',#277,POSITIVE_LENGTH_MEASURE(1.0E-006),#278);
#172=CARTESIAN_POINT('',(12.0,4.22575310272755E-012,9.99999999999997));
#173=CURVE_STYLE('',#279,POSITIVE_LENGTH_MEASURE(1.0E-006),#280);
#174=CIRCLE('',#281,7.0);
#175=POINT_STYLE(' ',#282,POSITIVE_LENGTH_MEASURE(1.0E-006),#283);
#176=CARTESIAN_POINT('',(-6.22649730810372,5.40899520109694E-015,20.0));
#177=CURVE_STYLE('',#284,POSITIVE_LENGTH_MEASURE(1.0E-006),#285);
#178=CIRCLE('',#286,7.0);
#179=CURVE_STYLE('',#287,POSITIVE_LENGTH_MEASURE(1.0E-006),#288);
#180=CIRCLE('',#289,12.0);
#181=SURFACE_STYLE_USAGE(.BOTH.,#290);
#182=FACE_OUTER_BOUND('',#291,.T.);
#183=CYLINDRICAL_SURFACE('',#292,7.0);
#184=POINT_STYLE(' ',#293,POSITIVE_LENGTH_MEASURE(1.0E-006),#294);
#185=CARTESIAN_POINT('',(12.0,4.22575310272755E-012,-2.8421709430404E-014));
#186=CURVE_STYLE('',#295,POSITIVE_LENGTH_MEASURE(1.0E-006),#296);
#187=CIRCLE('',#297,6.0);
#188=CURVE_STYLE('',#298,POSITIVE_LENGTH_MEASURE(1.0E-006),#299);
#189=LINE('',#300,#301);
#190=SURFACE_STYLE_USAGE(.BOTH.,#302);
#191=FACE_OUTER_BOUND('',#303,.T.);
#192=PLANE('',#304);
#193=CURVE_STYLE('',#305,POSITIVE_LENGTH_MEASURE(1.0E-006),#306);
#194=LINE('',#307,#308);
#195=CURVE_STYLE('',#309,POSITIVE_LENGTH_MEASURE(1.0E-006),#310);
#196=CIRCLE('',#311,6.0);
#197=CURVE_STYLE('',#312,POSITIVE_LENGTH_MEASURE(1.0E-006),#313);
#198=LINE('',#314,#315);
#199=SURFACE_STYLE_USAGE(.BOTH.,#316);
#200=FACE_OUTER_BOUND('',#317,.T.);
#201=PLANE('',#318);
#202=CURVE_STYLE('',#319,POSITIVE_LENGTH_MEASURE(1.0E-006),#320);
#203=CIRCLE('',#321,6.22649730810375);
#204=CURVE_STYLE('',#322,POSITIVE_LENGTH_MEASURE(1.0E-006),#323);
#205=LINE('',#324,#325);
#206=CURVE_STYLE('',#326,POSITIVE_LENGTH_MEASURE(1.0E-006),#327);
#207=LINE('',#328,#329);
#208=POINT_STYLE(' ',#330,POSITIVE_LENGTH_MEASURE(1.0E-006),#331);
#209=CARTESIAN_POINT('',(-5.99999999999997,8.07539217524342E-015,-24.0));
#210=POINT_STYLE(' ',#332,POSITIVE_LENGTH_MEASURE(1.0E-006),#333);
#211=CARTESIAN_POINT('',(6.00000000000003,2.11654686554525E-012,-24.0));
#212=CURVE_STYLE('',#334,POSITIVE_LENGTH_MEASURE(1.0E-006),#335);
#213=CIRCLE('',#336,6.22649730810375);
#214=SURFACE_STYLE_USAGE(.BOTH.,#337);
#215=FACE_OUTER_BOUND('',#338,.T.);
#216=CONICAL_SURFACE('',#339,9.11324865405187,0.523598775598299);
#217=POINT_STYLE(' ',#340,POSITIVE_LENGTH_MEASURE(1.0E-006),#341);
#218=CARTESIAN_POINT('',(-6.99999999999997,8.13662249293454E-015,-23.0));
#219=SURFACE_STYLE_USAGE(.BOTH.,#342);
#220=FACE_OUTER_BOUND('',#343,.T.);
#221=CYLINDRICAL_SURFACE('',#344,7.0);
#222=CURVE_STYLE('',#345,POSITIVE_LENGTH_MEASURE(1.0E-006),#346);
#223=LINE('',#347,#348);
#224=CURVE_STYLE('',#349,POSITIVE_LENGTH_MEASURE(1.0E-006),#350);
#225=CIRCLE('',#351,12.0);
#226=POINT_STYLE(' ',#352,POSITIVE_LENGTH_MEASURE(1.0E-006),#353);
#227=CARTESIAN_POINT('',(7.00000000000003,2.46808123840897E-012,-2.8421709430404E-014));
#228=SURFACE_STYLE_USAGE(.BOTH.,#354);
#229=CLOSED_SHELL('',(#108,#130,#78,#122,#94,#140,#112,#132,#150,#128,#86));
#230=SURFACE_STYLE_USAGE(.BOTH.,#355);
#231=FACE_OUTER_BOUND('',#356,.T.);
#232=CONICAL_SURFACE('',#357,6.5,0.785398163397448);
#233=POINT_STYLE(' ',#358,POSITIVE_LENGTH_MEASURE(1.0E-006),#359);
#234=CARTESIAN_POINT('',(-12.0,6.7283251860388E-015,9.99999999999997));
#235=POINT_STYLE(' ',#360,POSITIVE_LENGTH_MEASURE(1.0E-006),#361);
#236=CARTESIAN_POINT('',(6.22649730810377,2.19616845470482E-012,20.0));
#237=SURFACE_STYLE_USAGE(.BOTH.,#362);
#238=FACE_OUTER_BOUND('',#363,.T.);
#239=CONICAL_SURFACE('',#364,9.11324865405187,0.523598775598299);
#240=SURFACE_STYLE_USAGE(.BOTH.,#365);
#241=FACE_OUTER_BOUND('',#366,.T.);
#242=CYLINDRICAL_SURFACE('',#367,12.0);
#243=SURFACE_STYLE_USAGE(.BOTH.,#368);
#244=FACE_OUTER_BOUND('',#369,.T.);
#245=FACE_BOUND('',#370,.T.);
#246=PLANE('',#371);
#247=CURVE_STYLE('',#372,POSITIVE_LENGTH_MEASURE(1.0E-006),#373);
#248=LINE('',#374,#375);
#249=CURVE_STYLE('',#376,POSITIVE_LENGTH_MEASURE(1.0E-006),#377);
#250=CIRCLE('',#378,7.0);
#251=POINT_STYLE(' ',#379,POSITIVE_LENGTH_MEASURE(1.0E-006),#380);
#252=CARTESIAN_POINT('',(-6.99999999999997,6.7283251860388E-015,-2.8421709430404E-014));
#253=SURFACE_STYLE_USAGE(.BOTH.,#381);
#254=FACE_OUTER_BOUND('',#382,.T.);
#255=CONICAL_SURFACE('',#383,6.5,0.785398163397448);
#256=POINT_STYLE(' ',#384,POSITIVE_LENGTH_MEASURE(1.0E-006),#385);
#257=CARTESIAN_POINT('',(-12.0,7.34062836294999E-015,-2.8421709430404E-014));
#258=POINT_STYLE(' ',#386,POSITIVE_LENGTH_MEASURE(1.0E-006),#387);
#259=CARTESIAN_POINT('',(7.00000000000003,2.46808123840897E-012,-23.0));
#260=CURVE_STYLE('',#388,POSITIVE_LENGTH_MEASURE(1.0E-006),#389);
#261=CIRCLE('',#390,12.0);
#262=CURVE_STYLE('',#391,POSITIVE_LENGTH_MEASURE(1.0E-006),#392);
#263=CIRCLE('',#393,12.0);
#264=SURFACE_STYLE_USAGE(.BOTH.,#394);
#265=FACE_OUTER_BOUND('',#395,.T.);
#266=CYLINDRICAL_SURFACE('',#396,12.0);
#267=CURVE_STYLE('',#397,POSITIVE_LENGTH_MEASURE(1.0E-006),#398);
#268=LINE('',#399,#400);
#269=CURVE_STYLE('',#401,POSITIVE_LENGTH_MEASURE(1.0E-006),#402);
#270=CIRCLE('',#403,7.0);
#271=PRODUCT_CONTEXT('',#54,'mechanical');
#272=PRODUCT_DEFINITION_FORMATION_WITH_SPECIFIED_SOURCE(' ','NONE',#155,.NOT_KNOWN.);
#273=CARTESIAN_POINT('',(0.0,0.0,0.0));
#274=DIRECTION('',(0.0,0.0,1.0));
#275=DIRECTION('',(1.0,0.0,0.0));
#276= (NAMED_UNIT(#163)LENGTH_UNIT()SI_UNIT(.MILLI.,.METRE.));
#277=PRE_DEFINED_MARKER('');
#278=COLOUR_RGB('',0.509803950786591,0.509803950786591,0.588235318660736);
#279=DRAUGHTING_PRE_DEFINED_CURVE_FONT('continuous');
#280=COLOUR_RGB('',0.509803950786591,0.509803950786591,0.588235318660736);
#281=AXIS2_PLACEMENT_3D('',#405,#406,#407);
#282=PRE_DEFINED_MARKER('');
#283=COLOUR_RGB('',0.509803950786591,0.509803950786591,0.588235318660736);
#284=DRAUGHTING_PRE_DEFINED_CURVE_FONT('continuous');
#285=COLOUR_RGB('',0.509803950786591,0.509803950786591,0.588235318660736);
#286=AXIS2_PLACEMENT_3D('',#408,#409,#410);
#287=DRAUGHTING_PRE_DEFINED_CURVE_FONT('continuous');
#288=COLOUR_RGB('',0.509803950786591,0.509803950786591,0.588235318660736);
#289=AXIS2_PLACEMENT_3D('',#411,#412,#413);
#290=SURFACE_SIDE_STYLE('',(#414));
#291=EDGE_LOOP('',(#415,#416,#417,#418));
#292=AXIS2_PLACEMENT_3D('',#419,#420,#421);
#293=PRE_DEFINED_MARKER('');
#294=COLOUR_RGB('',0.509803950786591,0.509803950786591,0.588235318660736);
#295=DRAUGHTING_PRE_DEFINED_CURVE_FONT('continuous');
#296=COLOUR_RGB('',0.509803950786591,0.509803950786591,0.588235318660736);
#297=AXIS2_PLACEMENT_3D('',#422,#423,#424);
#298=DRAUGHTING_PRE_DEFINED_CURVE_FONT('continuous');
#299=COLOUR_RGB('',0.509803950786591,0.509803950786591,0.588235318660736);
#300=CARTESIAN_POINT('',(9.1132486540519,3.21096077871619E-012,15.0));
#301=VECTOR('',#425,1.0);
#302=SURFACE_SIDE_STYLE('',(#426));
#303=EDGE_LOOP('',(#427,#428));
#304=AXIS2_PLACEMENT_3D('',#429,#430,#431);
#305=DRAUGHTING_PRE_DEFINED_CURVE_FONT('continuous');
#306=COLOUR_RGB('',0.509803950786591,0.509803950786591,0.588235318660736);
#307=CARTESIAN_POINT('',(-6.49999999999997,-2.27763279525121E-012,-23.5));
#308=VECTOR('',#432,1.0);
#309=DRAUGHTING_PRE_DEFINED_CURVE_FONT('continuous');
#310=COLOUR_RGB('',0.509803950786591,0.509803950786591,0.588235318660736);
#311=AXIS2_PLACEMENT_3D('',#433,#434,#435);
#312=DRAUGHTING_PRE_DEFINED_CURVE_FONT('continuous');
#313=COLOUR_RGB('',0.509803950786591,0.509803950786591,0.588235318660736);
#314=CARTESIAN_POINT('',(-6.99999999999997,-2.45339998168307E-012,-11.5));
#315=VECTOR('',#436,1.0);
#316=SURFACE_SIDE_STYLE('',(#437));
#317=EDGE_LOOP('',(#438,#439));
#318=AXIS2_PLACEMENT_3D('',#440,#441,#442);
#319=DRAUGHTING_PRE_DEFINED_CURVE_FONT('continuous');
#320=COLOUR_RGB('',0.509803950786591,0.509803950786591,0.588235318660736);
#321=AXIS2_PLACEMENT_3D('',#443,#444,#445);
#322=DRAUGHTING_PRE_DEFINED_CURVE_FONT('continuous');
#323=COLOUR_RGB('',0.509803950786591,0.509803950786591,0.588235318660736);
#324=CARTESIAN_POINT('',(-12.0,-4.21107184600165E-012,4.99999999999997));
#325=VECTOR('',#446,1.0);
#326=DRAUGHTING_PRE_DEFINED_CURVE_FONT('continuous');
#327=COLOUR_RGB('',0.509803950786591,0.509803950786591,0.588235318660736);
#328=CARTESIAN_POINT('',(7.00000000000003,2.46808123840897E-012,-11.5));
#329=VECTOR('',#447,1.0);
#330=PRE_DEFINED_MARKER('');
#331=COLOUR_RGB('',0.509803950786591,0.509803950786591,0.588235318660736);
#332=PRE_DEFINED_MARKER('');
#333=COLOUR_RGB('',0.509803950786591,0.509803950786591,0.588235318660736);
#334=DRAUGHTING_PRE_DEFINED_CURVE_FONT('continuous');
#335=COLOUR_RGB('',0.509803950786591,0.509803950786591,0.588235318660736);
#336=AXIS2_PLACEMENT_3D('',#448,#449,#450);
#337=SURFACE_SIDE_STYLE('',(#451));
#338=EDGE_LOOP('',(#452,#453,#454,#455));
#339=AXIS2_PLACEMENT_3D('',#456,#457,#458);
#340=PRE_DEFINED_MARKER('');
#341=COLOUR_RGB('',0.509803950786591,0.509803950786591,0.588235318660736);
#342=SURFACE_SIDE_STYLE('',(#459));
#343=EDGE_LOOP('',(#460,#461,#462,#463));
#344=AXIS2_PLACEMENT_3D('',#464,#465,#466);
#345=DRAUGHTING_PRE_DEFINED_CURVE_FONT('continuous');
#346=COLOUR_RGB('',0.509803950786591,0.509803950786591,0.588235318660736);
#347=CARTESIAN_POINT('',(-9.11324865405184,-3.19627952199029E-012,15.0));
#348=VECTOR('',#467,1.0);
#349=DRAUGHTING_PRE_DEFINED_CURVE_FONT('continuous');
#350=COLOUR_RGB('',0.509803950786591,0.509803950786591,0.588235318660736);
#351=AXIS2_PLACEMENT_3D('',#468,#469,#470);
#352=PRE_DEFINED_MARKER('');
#353=COLOUR_RGB('',0.509803950786591,0.509803950786591,0.588235318660736);
#354=SURFACE_SIDE_STYLE('',(#471));
#355=SURFACE_SIDE_STYLE('',(#472));
#356=EDGE_LOOP('',(#473,#474,#475,#476));
#357=AXIS2_PLACEMENT_3D('',#477,#478,#479);
#358=PRE_DEFINED_MARKER('');
#359=COLOUR_RGB('',0.509803950786591,0.509803950786591,0.588235318660736);
#360=PRE_DEFINED_MARKER('');
#361=COLOUR_RGB('',0.509803950786591,0.509803950786591,0.588235318660736);
#362=SURFACE_SIDE_STYLE('',(#480));
#363=EDGE_LOOP('',(#481,#482,#483,#484));
#364=AXIS2_PLACEMENT_3D('',#485,#486,#487);
#365=SURFACE_SIDE_STYLE('',(#488));
#366=EDGE_LOOP('',(#489,#490,#491,#492));
#367=AXIS2_PLACEMENT_3D('',#493,#494,#495);
#368=SURFACE_SIDE_STYLE('',(#496));
#369=EDGE_LOOP('',(#497,#498));
#370=EDGE_LOOP('',(#499,#500));
#371=AXIS2_PLACEMENT_3D('',#501,#502,#503);
#372=DRAUGHTING_PRE_DEFINED_CURVE_FONT('continuous');
#373=COLOUR_RGB('',0.509803950786591,0.509803950786591,0.588235318660736);
#374=CARTESIAN_POINT('',(6.50000000000003,2.29231405197711E-012,-23.5));
#375=VECTOR('',#504,1.0);
#376=DRAUGHTING_PRE_DEFINED_CURVE_FONT('continuous');
#377=COLOUR_RGB('',0.509803950786591,0.509803950786591,0.588235318660736);
#378=AXIS2_PLACEMENT_3D('',#505,#506,#507);
#379=PRE_DEFINED_MARKER('');
#380=COLOUR_RGB('',0.509803950786591,0.509803950786591,0.588235318660736);
#381=SURFACE_SIDE_STYLE('',(#508));
#382=EDGE_LOOP('',(#509,#510,#511,#512));
#383=AXIS2_PLACEMENT_3D('',#513,#514,#515);
#384=PRE_DEFINED_MARKER('');
#385=COLOUR_RGB('',0.509803950786591,0.509803950786591,0.588235318660736);
#386=PRE_DEFINED_MARKER('');
#387=COLOUR_RGB('',0.509803950786591,0.509803950786591,0.588235318660736);
#388=DRAUGHTING_PRE_DEFINED_CURVE_FONT('continuous');
#389=COLOUR_RGB('',0.509803950786591,0.509803950786591,0.588235318660736);
#390=AXIS2_PLACEMENT_3D('',#516,#517,#518);
#391=DRAUGHTING_PRE_DEFINED_CURVE_FONT('continuous');
#392=COLOUR_RGB('',0.509803950786591,0.509803950786591,0.588235318660736);
#393=AXIS2_PLACEMENT_3D('',#519,#520,#521);
#394=SURFACE_SIDE_STYLE('',(#522));
#395=EDGE_LOOP('',(#523,#524,#525,#526));
#396=AXIS2_PLACEMENT_3D('',#527,#528,#529);
#397=DRAUGHTING_PRE_DEFINED_CURVE_FONT('continuous');
#398=COLOUR_RGB('',0.509803950786591,0.509803950786591,0.588235318660736);
#399=CARTESIAN_POINT('',(12.0,4.22575310272755E-012,4.99999999999997));
#400=VECTOR('',#530,1.0);
#401=DRAUGHTING_PRE_DEFINED_CURVE_FONT('continuous');
#402=COLOUR_RGB('',0.509803950786591,0.509803950786591,0.588235318660736);
#403=AXIS2_PLACEMENT_3D('',#531,#532,#533);
#405=CARTESIAN_POINT('',(2.8421709430404E-014,7.34062836294999E-015,-23.0));
#406=DIRECTION('',(0.0,0.0,1.0));
#407=DIRECTION('',(-1.0,-3.51656833499099E-013,0.0));
#408=CARTESIAN_POINT('',(2.8421709430404E-014,7.34062836294999E-015,-2.8421709430404E-014));
#409=DIRECTION('',(0.0,0.0,1.0));
#410=DIRECTION('',(-1.0,-3.51656833499099E-013,0.0));
#411=CARTESIAN_POINT('',(2.8421709430404E-014,7.34062836294999E-015,-2.8421709430404E-014));
#412=DIRECTION('',(0.0,0.0,1.0));
#413=DIRECTION('',(-1.0,-3.51656833499099E-013,0.0));
#414=SURFACE_STYLE_FILL_AREA(#534);
#415=ORIENTED_EDGE('',*,*,#92,.F.);
#416=ORIENTED_EDGE('',*,*,#70,.T.);
#417=ORIENTED_EDGE('',*,*,#100,.F.);
#418=ORIENTED_EDGE('',*,*,#74,.F.);
#419=CARTESIAN_POINT('',(2.8421709430404E-014,7.34062836294999E-015,-11.5));
#420=DIRECTION('',(-0.0,-0.0,-1.0));
#421=DIRECTION('',(-1.0,-3.51656833499099E-013,0.0));
#422=CARTESIAN_POINT('',(2.8421709430404E-014,7.34062836294999E-015,-24.0));
#423=DIRECTION('',(0.0,0.0,1.0));
#424=DIRECTION('',(-1.0,-3.51656833499099E-013,0.0));
#425=DIRECTION('',(0.5,1.75767186431858E-013,-0.866025403784439));
#426=SURFACE_STYLE_FILL_AREA(#535);
#427=ORIENTED_EDGE('',*,*,#96,.T.);
#428=ORIENTED_EDGE('',*,*,#106,.T.);
#429=CARTESIAN_POINT('',(-3.11324865405184,5.02774479281885E-015,20.0));
#430=DIRECTION('',(0.0,0.0,1.0));
#431=DIRECTION('',(-1.0,1.22460635382238E-016,0.0));
#432=DIRECTION('',(-0.707106781186548,-2.48572338872094E-013,0.707106781186547));
#433=CARTESIAN_POINT('',(2.8421709430404E-014,7.34062836294999E-015,-24.0));
#434=DIRECTION('',(0.0,0.0,1.0));
#435=DIRECTION('',(-1.0,-3.51656833499099E-013,0.0));
#436=DIRECTION('',(0.0,0.0,1.0));
#437=SURFACE_STYLE_FILL_AREA(#536);
#438=ORIENTED_EDGE('',*,*,#82,.F.);
#439=ORIENTED_EDGE('',*,*,#90,.F.);
#440=CARTESIAN_POINT('',(-2.99999999999997,7.70801026909671E-015,-24.0));
#441=DIRECTION('',(0.0,0.0,-1.0));
#442=DIRECTION('',(1.0,-1.22460635382238E-016,0.0));
#443=CARTESIAN_POINT('',(2.8421709430404E-014,7.34062836294999E-015,20.0));
#444=DIRECTION('',(0.0,0.0,1.0));
#445=DIRECTION('',(-1.0,-3.51656833499099E-013,0.0));
#446=DIRECTION('',(0.0,0.0,1.0));
#447=DIRECTION('',(-0.0,-0.0,-1.0));
#448=CARTESIAN_POINT('',(2.8421709430404E-014,7.34062836294999E-015,20.0));
#449=DIRECTION('',(0.0,0.0,1.0));
#450=DIRECTION('',(-1.0,-3.51656833499099E-013,0.0));
#451=SURFACE_STYLE_FILL_AREA(#537);
#452=ORIENTED_EDGE('',*,*,#114,.F.);
#453=ORIENTED_EDGE('',*,*,#116,.T.);
#454=ORIENTED_EDGE('',*,*,#84,.F.);
#455=ORIENTED_EDGE('',*,*,#96,.F.);
#456=CARTESIAN_POINT('',(2.8421709430404E-014,7.34062836294999E-015,15.0));
#457=DIRECTION('',(-0.0,-0.0,-1.0));
#458=DIRECTION('',(-1.0,-3.51656833499099E-013,0.0));
#459=SURFACE_STYLE_FILL_AREA(#538);
#460=ORIENTED_EDGE('',*,*,#92,.T.);
#461=ORIENTED_EDGE('',*,*,#154,.F.);
#462=ORIENTED_EDGE('',*,*,#100,.T.);
#463=ORIENTED_EDGE('',*,*,#136,.T.);
#464=CARTESIAN_POINT('',(2.8421709430404E-014,7.34062836294999E-015,-11.5));
#465=DIRECTION('',(-0.0,-0.0,-1.0));
#466=DIRECTION('',(-1.0,-3.51656833499099E-013,0.0));
#467=DIRECTION('',(0.5,1.75767186431858E-013,0.866025403784439));
#468=CARTESIAN_POINT('',(2.8421709430404E-014,7.34062836294999E-015,9.99999999999997));
#469=DIRECTION('',(0.0,0.0,1.0));
#470=DIRECTION('',(-1.0,-3.51656833499099E-013,0.0));
#471=SURFACE_STYLE_FILL_AREA(#539);
#472=SURFACE_STYLE_FILL_AREA(#540);
#473=ORIENTED_EDGE('',*,*,#88,.F.);
#474=ORIENTED_EDGE('',*,*,#82,.T.);
#475=ORIENTED_EDGE('',*,*,#134,.F.);
#476=ORIENTED_EDGE('',*,*,#70,.F.);
#477=CARTESIAN_POINT('',(2.8421709430404E-014,7.34062836294999E-015,-23.5));
#478=DIRECTION('',(-0.0,0.0,1.0));
#479=DIRECTION('',(-1.0,-3.51656833499099E-013,0.0));
#480=SURFACE_STYLE_FILL_AREA(#541);
#481=ORIENTED_EDGE('',*,*,#114,.T.);
#482=ORIENTED_EDGE('',*,*,#106,.F.);
#483=ORIENTED_EDGE('',*,*,#84,.T.);
#484=ORIENTED_EDGE('',*,*,#146,.T.);
#485=CARTESIAN_POINT('',(2.8421709430404E-014,7.34062836294999E-015,15.0));
#486=DIRECTION('',(-0.0,-0.0,-1.0));
#487=DIRECTION('',(-1.0,-3.51656833499099E-013,0.0));
#488=SURFACE_STYLE_FILL_AREA(#542);
#489=ORIENTED_EDGE('',*,*,#98,.F.);
#490=ORIENTED_EDGE('',*,*,#148,.T.);
#491=ORIENTED_EDGE('',*,*,#152,.F.);
#492=ORIENTED_EDGE('',*,*,#116,.F.);
#493=CARTESIAN_POINT('',(2.8421709430404E-014,7.34062836294999E-015,4.99999999999997));
#494=DIRECTION('',(-0.0,-0.0,-1.0));
#495=DIRECTION('',(-1.0,-3.51656833499099E-013,0.0));
#496=SURFACE_STYLE_FILL_AREA(#543);
#497=ORIENTED_EDGE('',*,*,#148,.F.);
#498=ORIENTED_EDGE('',*,*,#76,.F.);
#499=ORIENTED_EDGE('',*,*,#74,.T.);
#500=ORIENTED_EDGE('',*,*,#154,.T.);
#501=CARTESIAN_POINT('',(-9.49999999999997,7.0344767744944E-015,-2.8421709430404E-014));
#502=DIRECTION('',(0.0,0.0,-1.0));
#503=DIRECTION('',(1.0,-1.22460635382238E-016,0.0));
#504=DIRECTION('',(-0.707106781186548,-2.48572338872094E-013,-0.707106781186547));
#505=CARTESIAN_POINT('',(2.8421709430404E-014,7.34062836294999E-015,-23.0));
#506=DIRECTION('',(0.0,0.0,1.0));
#507=DIRECTION('',(-1.0,-3.51656833499099E-013,0.0));
#508=SURFACE_STYLE_FILL_AREA(#544);
#509=ORIENTED_EDGE('',*,*,#88,.T.);
#510=ORIENTED_EDGE('',*,*,#136,.F.);
#511=ORIENTED_EDGE('',*,*,#134,.T.);
#512=ORIENTED_EDGE('',*,*,#90,.T.);
#513=CARTESIAN_POINT('',(2.8421709430404E-014,7.34062836294999E-015,-23.5));
#514=DIRECTION('',(-0.0,0.0,1.0));
#515=DIRECTION('',(-1.0,-3.51656833499099E-013,0.0));
#516=CARTESIAN_POINT('',(2.8421709430404E-014,7.34062836294999E-015,9.99999999999997));
#517=DIRECTION('',(0.0,0.0,1.0));
#518=DIRECTION('',(-1.0,-3.51656833499099E-013,0.0));
#519=CARTESIAN_POINT('',(2.8421709430404E-014,7.34062836294999E-015,-2.8421709430404E-014));
#520=DIRECTION('',(0.0,0.0,1.0));
#521=DIRECTION('',(-1.0,-3.51656833499099E-013,0.0));
#522=SURFACE_STYLE_FILL_AREA(#545);
#523=ORIENTED_EDGE('',*,*,#98,.T.);
#524=ORIENTED_EDGE('',*,*,#146,.F.);
#525=ORIENTED_EDGE('',*,*,#152,.T.);
#526=ORIENTED_EDGE('',*,*,#76,.T.);
#527=CARTESIAN_POINT('',(2.8421709430404E-014,7.34062836294999E-015,4.99999999999997));
#528=DIRECTION('',(-0.0,-0.0,-1.0));
#529=DIRECTION('',(-1.0,-3.51656833499099E-013,0.0));
#530=DIRECTION('',(-0.0,-0.0,-1.0));
#531=CARTESIAN_POINT('',(2.8421709430404E-014,7.34062836294999E-015,-2.8421709430404E-014));
#532=DIRECTION('',(0.0,0.0,1.0));
#533=DIRECTION('',(-1.0,-3.51656833499099E-013,0.0));
#534=FILL_AREA_STYLE('',(#546));
#535=FILL_AREA_STYLE('',(#547));
#536=FILL_AREA_STYLE('',(#548));
#537=FILL_AREA_STYLE('',(#549));
#538=FILL_AREA_STYLE('',(#550));
#539=FILL_AREA_STYLE('',(#551));
#540=FILL_AREA_STYLE('',(#552));
#541=FILL_AREA_STYLE('',(#553));
#542=FILL_AREA_STYLE('',(#554));
#543=FILL_AREA_STYLE('',(#555));
#544=FILL_AREA_STYLE('',(#556));
#545=FILL_AREA_STYLE('',(#557));
#546=FILL_AREA_STYLE_COLOUR('',#558);
#547=FILL_AREA_STYLE_COLOUR('',#559);
#548=FILL_AREA_STYLE_COLOUR('',#560);
#549=FILL_AREA_STYLE_COLOUR('',#561);
#550=FILL_AREA_STYLE_COLOUR('',#562);
#551=FILL_AREA_STYLE_COLOUR('',#563);
#552=FILL_AREA_STYLE_COLOUR('',#564);
#553=FILL_AREA_STYLE_COLOUR('',#565);
#554=FILL_AREA_STYLE_COLOUR('',#566);
#555=FILL_AREA_STYLE_COLOUR('',#567);
#556=FILL_AREA_STYLE_COLOUR('',#568);
#557=FILL_AREA_STYLE_COLOUR('',#569);
#558=COLOUR_RGB('',0.509803950786591,0.509803950786591,0.588235318660736);
#559=COLOUR_RGB('',0.509803950786591,0.509803950786591,0.588235318660736);
#560=COLOUR_RGB('',0.509803950786591,0.509803950786591,0.588235318660736);
#561=COLOUR_RGB('',0.509803950786591,0.509803950786591,0.588235318660736);
#562=COLOUR_RGB('',0.509803950786591,0.509803950786591,0.588235318660736);
#563=COLOUR_RGB('',0.509803950786591,0.509803950786591,0.588235318660736);
#564=COLOUR_RGB('',0.509803950786591,0.509803950786591,0.588235318660736);
#565=COLOUR_RGB('',0.509803950786591,0.509803950786591,0.588235318660736);
#566=COLOUR_RGB('',0.509803950786591,0.509803950786591,0.588235318660736);
#567=COLOUR_RGB('',0.509803950786591,0.509803950786591,0.588235318660736);
#568=COLOUR_RGB('',0.509803950786591,0.509803950786591,0.588235318660736);
#569=COLOUR_RGB('',0.509803950786591,0.509803950786591,0.588235318660736);
ENDSEC;
END-ISO-10303-21;
