ISO-10303-21;
HEADER;
FILE_DESCRIPTION(('STEP AP214'),'1');
FILE_NAME(' ','  ',('TraceParts'),('TraceParts S.A.'),'XStep 1.0',' ',' ');
FILE_SCHEMA(('automotive_design'));
ENDSEC;
DATA;
#1=MECHANICAL_DESIGN_GEOMETRIC_PRESENTATION_REPRESENTATION(' ',(#10,#11,#12,#13,#14,#15,#16,#17,#18,#19,#20,#21,#22,#23,#24,#25,#26,#27,#28,#29,#30,#31,#32,#33,#34,#35,#36,#37,#38,#39,#40,#41,#42,#43,#44,#45,#46,#47,#48,#49,#50,#51,#52,#53,#54),#6);
#2=PRODUCT_DEFINITION_CONTEXT('',#55,'design');
#3=APPLICATION_PROTOCOL_DEFINITION('INTERNATIONAL STANDARD','automotive_design',1994,#55);
#4=PRODUCT_CATEGORY_RELATIONSHIP('NONE','NONE',#56,#57);
#5=SHAPE_DEFINITION_REPRESENTATION(#58,#59);
#6= (GEOMETRIC_REPRESENTATION_CONTEXT(3)GLOBAL_UNCERTAINTY_ASSIGNED_CONTEXT((#62))GLOBAL_UNIT_ASSIGNED_CONTEXT((#64,#65,#66))REPRESENTATION_CONTEXT('NONE','WORKSPACE'));
#10=STYLED_ITEM('',(#68),#69);
#11=STYLED_ITEM('',(#70),#71);
#12=STYLED_ITEM('',(#72),#73);
#13=STYLED_ITEM('',(#74),#75);
#14=STYLED_ITEM('',(#76),#77);
#15=STYLED_ITEM('',(#78),#79);
#16=STYLED_ITEM('',(#80),#81);
#17=STYLED_ITEM('',(#82),#83);
#18=STYLED_ITEM('',(#84),#85);
#19=STYLED_ITEM('',(#86),#87);
#20=STYLED_ITEM('',(#88),#89);
#21=STYLED_ITEM('',(#90),#91);
#22=STYLED_ITEM('',(#92),#93);
#23=STYLED_ITEM('',(#94),#95);
#24=STYLED_ITEM('',(#96),#97);
#25=STYLED_ITEM('',(#98),#99);
#26=STYLED_ITEM('',(#100),#101);
#27=STYLED_ITEM('',(#102),#103);
#28=STYLED_ITEM('',(#104),#105);
#29=STYLED_ITEM('',(#106),#107);
#30=STYLED_ITEM('',(#108),#109);
#31=STYLED_ITEM('',(#110),#111);
#32=STYLED_ITEM('',(#112),#113);
#33=STYLED_ITEM('',(#114),#115);
#34=STYLED_ITEM('',(#116),#117);
#35=STYLED_ITEM('',(#118),#119);
#36=STYLED_ITEM('',(#120),#121);
#37=STYLED_ITEM('',(#122),#123);
#38=STYLED_ITEM('',(#124),#125);
#39=STYLED_ITEM('',(#126),#127);
#40=STYLED_ITEM('',(#128),#129);
#41=STYLED_ITEM('',(#130),#131);
#42=STYLED_ITEM('',(#132),#133);
#43=STYLED_ITEM('',(#134),#135);
#44=STYLED_ITEM('',(#136),#137);
#45=STYLED_ITEM('',(#138),#139);
#46=STYLED_ITEM('',(#140),#141);
#47=STYLED_ITEM('',(#142),#143);
#48=STYLED_ITEM('',(#144),#145);
#49=STYLED_ITEM('',(#146),#147);
#50=STYLED_ITEM('',(#148),#149);
#51=STYLED_ITEM('',(#150),#151);
#52=STYLED_ITEM('',(#152),#153);
#53=STYLED_ITEM('',(#154),#155);
#54=STYLED_ITEM('',(#156),#157);
#55=APPLICATION_CONTEXT(' ');
#56=PRODUCT_CATEGORY('part','NONE');
#57=PRODUCT_RELATED_PRODUCT_CATEGORY('detail',' ',(#158));
#58=PRODUCT_DEFINITION_SHAPE('NONE','NONE',#159);
#59=ADVANCED_BREP_SHAPE_REPRESENTATION('1',(#123,#160),#6);
#62=UNCERTAINTY_MEASURE_WITH_UNIT(LENGTH_MEASURE(1.0E-006),#64,'','');
#64= (CONVERSION_BASED_UNIT('MILLIMETRE',#163)LENGTH_UNIT()NAMED_UNIT(#166));
#65= (NAMED_UNIT(#168)PLANE_ANGLE_UNIT()SI_UNIT($,.RADIAN.));
#66= (NAMED_UNIT(#168)SOLID_ANGLE_UNIT()SI_UNIT($,.STERADIAN.));
#68=PRESENTATION_STYLE_ASSIGNMENT((#174));
#69=EDGE_CURVE('',#141,#93,#175,.T.);
#70=PRESENTATION_STYLE_ASSIGNMENT((#176));
#71=EDGE_CURVE('',#155,#153,#177,.T.);
#72=PRESENTATION_STYLE_ASSIGNMENT((#178));
#73=EDGE_CURVE('',#137,#99,#179,.T.);
#74=PRESENTATION_STYLE_ASSIGNMENT((#180));
#75=ADVANCED_FACE('',(#181),#182,.T.);
#76=PRESENTATION_STYLE_ASSIGNMENT((#183));
#77=EDGE_CURVE('',#105,#125,#184,.T.);
#78=PRESENTATION_STYLE_ASSIGNMENT((#185));
#79=EDGE_CURVE('',#87,#137,#186,.T.);
#80=PRESENTATION_STYLE_ASSIGNMENT((#187));
#81=EDGE_CURVE('',#99,#137,#188,.T.);
#82=PRESENTATION_STYLE_ASSIGNMENT((#189));
#83=ADVANCED_FACE('',(#190),#191,.T.);
#84=PRESENTATION_STYLE_ASSIGNMENT((#192));
#85=ADVANCED_FACE('',(#193),#194,.T.);
#86=PRESENTATION_STYLE_ASSIGNMENT((#195));
#87=VERTEX_POINT('',#196);
#88=PRESENTATION_STYLE_ASSIGNMENT((#197));
#89=EDGE_CURVE('',#125,#111,#198,.T.);
#90=PRESENTATION_STYLE_ASSIGNMENT((#199));
#91=VERTEX_POINT('',#200);
#92=PRESENTATION_STYLE_ASSIGNMENT((#201));
#93=VERTEX_POINT('',#202);
#94=PRESENTATION_STYLE_ASSIGNMENT((#203));
#95=EDGE_CURVE('',#153,#141,#204,.T.);
#96=PRESENTATION_STYLE_ASSIGNMENT((#205));
#97=ADVANCED_FACE('',(#206,#207),#208,.T.);
#98=PRESENTATION_STYLE_ASSIGNMENT((#209));
#99=VERTEX_POINT('',#210);
#100=PRESENTATION_STYLE_ASSIGNMENT((#211));
#101=EDGE_CURVE('',#93,#155,#212,.T.);
#102=PRESENTATION_STYLE_ASSIGNMENT((#213));
#103=EDGE_CURVE('',#111,#91,#214,.T.);
#104=PRESENTATION_STYLE_ASSIGNMENT((#215));
#105=VERTEX_POINT('',#216);
#106=PRESENTATION_STYLE_ASSIGNMENT((#217));
#107=ADVANCED_FACE('',(#218),#219,.T.);
#108=PRESENTATION_STYLE_ASSIGNMENT((#220));
#109=EDGE_CURVE('',#137,#157,#221,.T.);
#110=PRESENTATION_STYLE_ASSIGNMENT((#222));
#111=VERTEX_POINT('',#223);
#112=PRESENTATION_STYLE_ASSIGNMENT((#224));
#113=EDGE_CURVE('',#133,#87,#225,.T.);
#114=PRESENTATION_STYLE_ASSIGNMENT((#226));
#115=ADVANCED_FACE('',(#227),#228,.T.);
#116=PRESENTATION_STYLE_ASSIGNMENT((#229));
#117=ADVANCED_FACE('',(#230),#231,.T.);
#118=PRESENTATION_STYLE_ASSIGNMENT((#232));
#119=ADVANCED_FACE('',(#233),#234,.T.);
#120=PRESENTATION_STYLE_ASSIGNMENT((#235));
#121=EDGE_CURVE('',#91,#111,#236,.T.);
#122=PRESENTATION_STYLE_ASSIGNMENT((#237));
#123=MANIFOLD_SOLID_BREP('1',#238);
#124=PRESENTATION_STYLE_ASSIGNMENT((#239));
#125=VERTEX_POINT('',#240);
#126=PRESENTATION_STYLE_ASSIGNMENT((#241));
#127=EDGE_CURVE('',#155,#93,#242,.T.);
#128=PRESENTATION_STYLE_ASSIGNMENT((#243));
#129=EDGE_CURVE('',#87,#133,#244,.T.);
#130=PRESENTATION_STYLE_ASSIGNMENT((#245));
#131=EDGE_CURVE('',#157,#99,#246,.T.);
#132=PRESENTATION_STYLE_ASSIGNMENT((#247));
#133=VERTEX_POINT('',#248);
#134=PRESENTATION_STYLE_ASSIGNMENT((#249));
#135=ADVANCED_FACE('',(#250),#251,.T.);
#136=PRESENTATION_STYLE_ASSIGNMENT((#252));
#137=VERTEX_POINT('',#253);
#138=PRESENTATION_STYLE_ASSIGNMENT((#254));
#139=ADVANCED_FACE('',(#255),#256,.T.);
#140=PRESENTATION_STYLE_ASSIGNMENT((#257));
#141=VERTEX_POINT('',#258);
#142=PRESENTATION_STYLE_ASSIGNMENT((#259));
#143=EDGE_CURVE('',#99,#133,#260,.T.);
#144=PRESENTATION_STYLE_ASSIGNMENT((#261));
#145=EDGE_CURVE('',#141,#153,#262,.T.);
#146=PRESENTATION_STYLE_ASSIGNMENT((#263));
#147=EDGE_CURVE('',#91,#105,#264,.T.);
#148=PRESENTATION_STYLE_ASSIGNMENT((#265));
#149=EDGE_CURVE('',#125,#105,#266,.T.);
#150=PRESENTATION_STYLE_ASSIGNMENT((#267));
#151=ADVANCED_FACE('',(#268,#269),#270,.T.);
#152=PRESENTATION_STYLE_ASSIGNMENT((#271));
#153=VERTEX_POINT('',#272);
#154=PRESENTATION_STYLE_ASSIGNMENT((#273));
#155=VERTEX_POINT('',#274);
#156=PRESENTATION_STYLE_ASSIGNMENT((#275));
#157=VERTEX_POINT('',#276);
#158=PRODUCT('1','1','PART-1-DESC',(#277));
#159=PRODUCT_DEFINITION('NONE','NONE',#278,#2);
#160=AXIS2_PLACEMENT_3D('',#279,#280,#281);
#163=LENGTH_MEASURE_WITH_UNIT(LENGTH_MEASURE(1.0),#282);
#166=DIMENSIONAL_EXPONENTS(1.0,0.0,0.0,0.0,0.0,0.0,0.0);
#168=DIMENSIONAL_EXPONENTS(0.0,0.0,0.0,0.0,0.0,0.0,0.0);
#174=CURVE_STYLE('',#283,POSITIVE_LENGTH_MEASURE(1.0E-006),#284);
#175=LINE('',#285,#286);
#176=CURVE_STYLE('',#287,POSITIVE_LENGTH_MEASURE(1.0E-006),#288);
#177=LINE('',#289,#290);
#178=CURVE_STYLE('',#291,POSITIVE_LENGTH_MEASURE(1.0E-006),#292);
#179=CIRCLE('',#293,18.4999999999933);
#180=SURFACE_STYLE_USAGE(.BOTH.,#294);
#181=FACE_OUTER_BOUND('',#295,.T.);
#182=CYLINDRICAL_SURFACE('',#296,18.4999999999933);
#183=CURVE_STYLE('',#297,POSITIVE_LENGTH_MEASURE(1.0E-006),#298);
#184=CIRCLE('',#299,17.4999999999933);
#185=CURVE_STYLE('',#300,POSITIVE_LENGTH_MEASURE(1.0E-006),#301);
#186=LINE('',#302,#303);
#187=CURVE_STYLE('',#304,POSITIVE_LENGTH_MEASURE(1.0E-006),#305);
#188=CIRCLE('',#306,18.4999999999933);
#189=SURFACE_STYLE_USAGE(.BOTH.,#307);
#190=FACE_OUTER_BOUND('',#308,.T.);
#191=CYLINDRICAL_SURFACE('',#309,5.99999999999335);
#192=SURFACE_STYLE_USAGE(.BOTH.,#310);
#193=FACE_OUTER_BOUND('',#311,.T.);
#194=CYLINDRICAL_SURFACE('',#312,17.4999999999933);
#195=POINT_STYLE(' ',#313,POSITIVE_LENGTH_MEASURE(1.0E-006),#314);
#196=CARTESIAN_POINT('',(-18.4999999999933,2.12150429861553E-014,3.49999999999997));
#197=CURVE_STYLE('',#315,POSITIVE_LENGTH_MEASURE(1.0E-006),#316);
#198=LINE('',#317,#318);
#199=POINT_STYLE(' ',#319,POSITIVE_LENGTH_MEASURE(1.0E-006),#320);
#200=CARTESIAN_POINT('',(17.4999999999934,8.4283760756711E-013,3.49999999999997));
#201=POINT_STYLE(' ',#321,POSITIVE_LENGTH_MEASURE(1.0E-006),#322);
#202=CARTESIAN_POINT('',(-5.99999999999332,1.98985911557963E-014,-2.8421709430404E-014));
#203=CURVE_STYLE('',#323,POSITIVE_LENGTH_MEASURE(1.0E-006),#324);
#204=CIRCLE('',#325,5.99999999999335);
#205=SURFACE_STYLE_USAGE(.BOTH.,#326);
#206=FACE_OUTER_BOUND('',#327,.T.);
#207=FACE_BOUND('',#328,.T.);
#208=PLANE('',#329);
#209=POINT_STYLE(' ',#330,POSITIVE_LENGTH_MEASURE(1.0E-006),#331);
#210=CARTESIAN_POINT('',(18.4999999999934,8.8987668972039E-013,6.45158770158938));
#211=CURVE_STYLE('',#332,POSITIVE_LENGTH_MEASURE(1.0E-006),#333);
#212=CIRCLE('',#334,5.99999999999335);
#213=CURVE_STYLE('',#335,POSITIVE_LENGTH_MEASURE(1.0E-006),#336);
#214=CIRCLE('',#337,17.4999999999933);
#215=POINT_STYLE(' ',#338,POSITIVE_LENGTH_MEASURE(1.0E-006),#339);
#216=CARTESIAN_POINT('',(17.4999999999934,8.4283760756711E-013,-2.8421709430404E-014));
#217=SURFACE_STYLE_USAGE(.BOTH.,#340);
#218=FACE_OUTER_BOUND('',#341,.T.);
#219=SPHERICAL_SURFACE('',#342,49.9999999999819);
#220=CURVE_STYLE('',#343,POSITIVE_LENGTH_MEASURE(1.0E-006),#344);
#221=CIRCLE('',#345,49.9999999999819);
#222=POINT_STYLE(' ',#346,POSITIVE_LENGTH_MEASURE(1.0E-006),#347);
#223=CARTESIAN_POINT('',(-17.4999999999933,2.10925823507731E-014,3.49999999999997));
#224=CURVE_STYLE('',#348,POSITIVE_LENGTH_MEASURE(1.0E-006),#349);
#225=CIRCLE('',#350,18.4999999999933);
#226=SURFACE_STYLE_USAGE(.BOTH.,#351);
#227=FACE_OUTER_BOUND('',#352,.T.);
#228=PLANE('',#353);
#229=SURFACE_STYLE_USAGE(.BOTH.,#354);
#230=FACE_OUTER_BOUND('',#355,.T.);
#231=CYLINDRICAL_SURFACE('',#356,18.4999999999933);
#232=SURFACE_STYLE_USAGE(.BOTH.,#357);
#233=FACE_OUTER_BOUND('',#358,.T.);
#234=CYLINDRICAL_SURFACE('',#359,5.99999999999335);
#235=CURVE_STYLE('',#360,POSITIVE_LENGTH_MEASURE(1.0E-006),#361);
#236=CIRCLE('',#362,17.4999999999933);
#237=SURFACE_STYLE_USAGE(.BOTH.,#363);
#238=CLOSED_SHELL('',(#139,#75,#135,#119,#115,#83,#97,#85,#151,#117,#107));
#239=POINT_STYLE(' ',#364,POSITIVE_LENGTH_MEASURE(1.0E-006),#365);
#240=CARTESIAN_POINT('',(-17.4999999999933,2.1306888462692E-014,-2.8421709430404E-014));
#241=CURVE_STYLE('',#366,POSITIVE_LENGTH_MEASURE(1.0E-006),#367);
#242=CIRCLE('',#368,5.99999999999335);
#243=CURVE_STYLE('',#369,POSITIVE_LENGTH_MEASURE(1.0E-006),#370);
#244=CIRCLE('',#371,18.4999999999933);
#245=CURVE_STYLE('',#372,POSITIVE_LENGTH_MEASURE(1.0E-006),#373);
#246=CIRCLE('',#374,49.9999999999819);
#247=POINT_STYLE(' ',#375,POSITIVE_LENGTH_MEASURE(1.0E-006),#376);
#248=CARTESIAN_POINT('',(18.4999999999934,8.8987668972039E-013,3.49999999999997));
#249=SURFACE_STYLE_USAGE(.BOTH.,#377);
#250=FACE_OUTER_BOUND('',#378,.T.);
#251=CYLINDRICAL_SURFACE('',#379,17.4999999999933);
#252=POINT_STYLE(' ',#380,POSITIVE_LENGTH_MEASURE(1.0E-006),#381);
#253=CARTESIAN_POINT('',(-18.4999999999933,2.10343163334938E-014,6.45158770158938));
#254=SURFACE_STYLE_USAGE(.BOTH.,#382);
#255=FACE_OUTER_BOUND('',#383,.T.);
#256=SPHERICAL_SURFACE('',#384,49.9999999999819);
#257=POINT_STYLE(' ',#385,POSITIVE_LENGTH_MEASURE(1.0E-006),#386);
#258=CARTESIAN_POINT('',(-5.99999999999332,2.03884336973252E-014,-8.00000000000003));
#259=CURVE_STYLE('',#387,POSITIVE_LENGTH_MEASURE(1.0E-006),#388);
#260=LINE('',#389,#390);
#261=CURVE_STYLE('',#391,POSITIVE_LENGTH_MEASURE(1.0E-006),#392);
#262=CIRCLE('',#393,5.99999999999335);
#263=CURVE_STYLE('',#394,POSITIVE_LENGTH_MEASURE(1.0E-006),#395);
#264=LINE('',#396,#397);
#265=CURVE_STYLE('',#398,POSITIVE_LENGTH_MEASURE(1.0E-006),#399);
#266=CIRCLE('',#400,17.4999999999933);
#267=SURFACE_STYLE_USAGE(.BOTH.,#401);
#268=FACE_OUTER_BOUND('',#402,.T.);
#269=FACE_BOUND('',#403,.T.);
#270=PLANE('',#404);
#271=POINT_STYLE(' ',#405,POSITIVE_LENGTH_MEASURE(1.0E-006),#406);
#272=CARTESIAN_POINT('',(5.99999999999338,3.01888162804397E-013,-8.00000000000003));
#273=POINT_STYLE(' ',#407,POSITIVE_LENGTH_MEASURE(1.0E-006),#408);
#274=CARTESIAN_POINT('',(5.99999999999338,3.01888162804397E-013,-2.8421709430404E-014));
#275=POINT_STYLE(' ',#409,POSITIVE_LENGTH_MEASURE(1.0E-006),#410);
#276=CARTESIAN_POINT('',(2.8421709430404E-014,1.85515241665936E-014,9.99999999998201));
#277=PRODUCT_CONTEXT('',#55,'mechanical');
#278=PRODUCT_DEFINITION_FORMATION_WITH_SPECIFIED_SOURCE(' ','NONE',#158,.NOT_KNOWN.);
#279=CARTESIAN_POINT('',(0.0,0.0,0.0));
#280=DIRECTION('',(0.0,0.0,1.0));
#281=DIRECTION('',(1.0,0.0,0.0));
#282= (NAMED_UNIT(#166)LENGTH_UNIT()SI_UNIT(.MILLI.,.METRE.));
#283=DRAUGHTING_PRE_DEFINED_CURVE_FONT('continuous');
#284=COLOUR_RGB('',0.509803950786591,0.509803950786591,0.588235318660736);
#285=CARTESIAN_POINT('',(-5.99999999999332,-2.62580823034331E-013,-4.00000000000003));
#286=VECTOR('',#412,1.0);
#287=DRAUGHTING_PRE_DEFINED_CURVE_FONT('continuous');
#288=COLOUR_RGB('',0.509803950786591,0.509803950786591,0.588235318660736);
#289=CARTESIAN_POINT('',(5.99999999999338,3.01888162804397E-013,-4.00000000000003));
#290=VECTOR('',#413,1.0);
#291=DRAUGHTING_PRE_DEFINED_CURVE_FONT('continuous');
#292=COLOUR_RGB('',0.509803950786591,0.509803950786591,0.588235318660736);
#293=AXIS2_PLACEMENT_3D('',#414,#415,#416);
#294=SURFACE_SIDE_STYLE('',(#417));
#295=EDGE_LOOP('',(#418,#419,#420,#421));
#296=AXIS2_PLACEMENT_3D('',#422,#423,#424);
#297=DRAUGHTING_PRE_DEFINED_CURVE_FONT('continuous');
#298=COLOUR_RGB('',0.509803950786591,0.509803950786591,0.588235318660736);
#299=AXIS2_PLACEMENT_3D('',#425,#426,#427);
#300=DRAUGHTING_PRE_DEFINED_CURVE_FONT('continuous');
#301=COLOUR_RGB('',0.509803950786591,0.509803950786591,0.588235318660736);
#302=CARTESIAN_POINT('',(-18.4999999999933,-8.50569349950325E-013,4.97579385079468));
#303=VECTOR('',#428,1.0);
#304=DRAUGHTING_PRE_DEFINED_CURVE_FONT('continuous');
#305=COLOUR_RGB('',0.509803950786591,0.509803950786591,0.588235318660736);
#306=AXIS2_PLACEMENT_3D('',#429,#430,#431);
#307=SURFACE_SIDE_STYLE('',(#432));
#308=EDGE_LOOP('',(#433,#434,#435,#436));
#309=AXIS2_PLACEMENT_3D('',#437,#438,#439);
#310=SURFACE_SIDE_STYLE('',(#440));
#311=EDGE_LOOP('',(#441,#442,#443,#444));
#312=AXIS2_PLACEMENT_3D('',#445,#446,#447);
#313=PRE_DEFINED_MARKER('');
#314=COLOUR_RGB('',0.509803950786591,0.509803950786591,0.588235318660736);
#315=DRAUGHTING_PRE_DEFINED_CURVE_FONT('continuous');
#316=COLOUR_RGB('',0.509803950786591,0.509803950786591,0.588235318660736);
#317=CARTESIAN_POINT('',(-17.4999999999933,-8.03530267797045E-013,1.74999999999997));
#318=VECTOR('',#448,1.0);
#319=PRE_DEFINED_MARKER('');
#320=COLOUR_RGB('',0.509803950786591,0.509803950786591,0.588235318660736);
#321=PRE_DEFINED_MARKER('');
#322=COLOUR_RGB('',0.509803950786591,0.509803950786591,0.588235318660736);
#323=DRAUGHTING_PRE_DEFINED_CURVE_FONT('continuous');
#324=COLOUR_RGB('',0.509803950786591,0.509803950786591,0.588235318660736);
#325=AXIS2_PLACEMENT_3D('',#449,#450,#451);
#326=SURFACE_SIDE_STYLE('',(#452));
#327=EDGE_LOOP('',(#453,#454));
#328=EDGE_LOOP('',(#455,#456));
#329=AXIS2_PLACEMENT_3D('',#457,#458,#459);
#330=PRE_DEFINED_MARKER('');
#331=COLOUR_RGB('',0.509803950786591,0.509803950786591,0.588235318660736);
#332=DRAUGHTING_PRE_DEFINED_CURVE_FONT('continuous');
#333=COLOUR_RGB('',0.509803950786591,0.509803950786591,0.588235318660736);
#334=AXIS2_PLACEMENT_3D('',#460,#461,#462);
#335=DRAUGHTING_PRE_DEFINED_CURVE_FONT('continuous');
#336=COLOUR_RGB('',0.509803950786591,0.509803950786591,0.588235318660736);
#337=AXIS2_PLACEMENT_3D('',#463,#464,#465);
#338=PRE_DEFINED_MARKER('');
#339=COLOUR_RGB('',0.509803950786591,0.509803950786591,0.588235318660736);
#340=SURFACE_SIDE_STYLE('',(#466));
#341=EDGE_LOOP('',(#467,#468,#469));
#342=AXIS2_PLACEMENT_3D('',#470,#471,#472);
#343=DRAUGHTING_PRE_DEFINED_CURVE_FONT('continuous');
#344=COLOUR_RGB('',0.509803950786591,0.509803950786591,0.588235318660736);
#345=AXIS2_PLACEMENT_3D('',#473,#474,#475);
#346=PRE_DEFINED_MARKER('');
#347=COLOUR_RGB('',0.509803950786591,0.509803950786591,0.588235318660736);
#348=DRAUGHTING_PRE_DEFINED_CURVE_FONT('continuous');
#349=COLOUR_RGB('',0.509803950786591,0.509803950786591,0.588235318660736);
#350=AXIS2_PLACEMENT_3D('',#476,#477,#478);
#351=SURFACE_SIDE_STYLE('',(#479));
#352=EDGE_LOOP('',(#480,#481));
#353=AXIS2_PLACEMENT_3D('',#482,#483,#484);
#354=SURFACE_SIDE_STYLE('',(#485));
#355=EDGE_LOOP('',(#486,#487,#488,#489));
#356=AXIS2_PLACEMENT_3D('',#490,#491,#492);
#357=SURFACE_SIDE_STYLE('',(#493));
#358=EDGE_LOOP('',(#494,#495,#496,#497));
#359=AXIS2_PLACEMENT_3D('',#498,#499,#500);
#360=DRAUGHTING_PRE_DEFINED_CURVE_FONT('continuous');
#361=COLOUR_RGB('',0.509803950786591,0.509803950786591,0.588235318660736);
#362=AXIS2_PLACEMENT_3D('',#501,#502,#503);
#363=SURFACE_SIDE_STYLE('',(#504));
#364=PRE_DEFINED_MARKER('');
#365=COLOUR_RGB('',0.509803950786591,0.509803950786591,0.588235318660736);
#366=DRAUGHTING_PRE_DEFINED_CURVE_FONT('continuous');
#367=COLOUR_RGB('',0.509803950786591,0.509803950786591,0.588235318660736);
#368=AXIS2_PLACEMENT_3D('',#505,#506,#507);
#369=DRAUGHTING_PRE_DEFINED_CURVE_FONT('continuous');
#370=COLOUR_RGB('',0.509803950786591,0.509803950786591,0.588235318660736);
#371=AXIS2_PLACEMENT_3D('',#508,#509,#510);
#372=DRAUGHTING_PRE_DEFINED_CURVE_FONT('continuous');
#373=COLOUR_RGB('',0.509803950786591,0.509803950786591,0.588235318660736);
#374=AXIS2_PLACEMENT_3D('',#511,#512,#513);
#375=PRE_DEFINED_MARKER('');
#376=COLOUR_RGB('',0.509803950786591,0.509803950786591,0.588235318660736);
#377=SURFACE_SIDE_STYLE('',(#514));
#378=EDGE_LOOP('',(#515,#516,#517,#518));
#379=AXIS2_PLACEMENT_3D('',#519,#520,#521);
#380=PRE_DEFINED_MARKER('');
#381=COLOUR_RGB('',0.509803950786591,0.509803950786591,0.588235318660736);
#382=SURFACE_SIDE_STYLE('',(#522));
#383=EDGE_LOOP('',(#523,#524,#525));
#384=AXIS2_PLACEMENT_3D('',#526,#527,#528);
#385=PRE_DEFINED_MARKER('');
#386=COLOUR_RGB('',0.509803950786591,0.509803950786591,0.588235318660736);
#387=DRAUGHTING_PRE_DEFINED_CURVE_FONT('continuous');
#388=COLOUR_RGB('',0.509803950786591,0.509803950786591,0.588235318660736);
#389=CARTESIAN_POINT('',(18.4999999999934,8.8987668972039E-013,4.97579385079468));
#390=VECTOR('',#529,1.0);
#391=DRAUGHTING_PRE_DEFINED_CURVE_FONT('continuous');
#392=COLOUR_RGB('',0.509803950786591,0.509803950786591,0.588235318660736);
#393=AXIS2_PLACEMENT_3D('',#530,#531,#532);
#394=DRAUGHTING_PRE_DEFINED_CURVE_FONT('continuous');
#395=COLOUR_RGB('',0.509803950786591,0.509803950786591,0.588235318660736);
#396=CARTESIAN_POINT('',(17.4999999999934,8.4283760756711E-013,1.74999999999997));
#397=VECTOR('',#533,1.0);
#398=DRAUGHTING_PRE_DEFINED_CURVE_FONT('continuous');
#399=COLOUR_RGB('',0.509803950786591,0.509803950786591,0.588235318660736);
#400=AXIS2_PLACEMENT_3D('',#534,#535,#536);
#401=SURFACE_SIDE_STYLE('',(#537));
#402=EDGE_LOOP('',(#538,#539));
#403=EDGE_LOOP('',(#540,#541));
#404=AXIS2_PLACEMENT_3D('',#542,#543,#544);
#405=PRE_DEFINED_MARKER('');
#406=COLOUR_RGB('',0.509803950786591,0.509803950786591,0.588235318660736);
#407=PRE_DEFINED_MARKER('');
#408=COLOUR_RGB('',0.509803950786591,0.509803950786591,0.588235318660736);
#409=PRE_DEFINED_MARKER('');
#410=COLOUR_RGB('',0.509803950786591,0.509803950786591,0.588235318660736);
#412=DIRECTION('',(0.0,0.0,1.0));
#413=DIRECTION('',(-0.0,-0.0,-1.0));
#414=CARTESIAN_POINT('',(2.8421709430404E-014,1.96536698850326E-014,6.45158770158938));
#415=DIRECTION('',(0.0,0.0,1.0));
#416=DIRECTION('',(-1.0,-4.71615427886617E-014,0.0));
#417=SURFACE_STYLE_FILL_AREA(#545);
#418=ORIENTED_EDGE('',*,*,#79,.F.);
#419=ORIENTED_EDGE('',*,*,#129,.T.);
#420=ORIENTED_EDGE('',*,*,#143,.F.);
#421=ORIENTED_EDGE('',*,*,#73,.F.);
#422=CARTESIAN_POINT('',(2.8421709430404E-014,1.96536698850326E-014,4.97579385079468));
#423=DIRECTION('',(-0.0,-0.0,-1.0));
#424=DIRECTION('',(-1.0,-4.71615427886617E-014,0.0));
#425=CARTESIAN_POINT('',(2.8421709430404E-014,1.96536698850326E-014,-2.8421709430404E-014));
#426=DIRECTION('',(0.0,0.0,1.0));
#427=DIRECTION('',(-1.0,-4.71615427886617E-014,0.0));
#428=DIRECTION('',(0.0,0.0,1.0));
#429=CARTESIAN_POINT('',(2.8421709430404E-014,1.96536698850326E-014,6.45158770158938));
#430=DIRECTION('',(0.0,0.0,1.0));
#431=DIRECTION('',(-1.0,-4.71615427886617E-014,0.0));
#432=SURFACE_STYLE_FILL_AREA(#546);
#433=ORIENTED_EDGE('',*,*,#69,.T.);
#434=ORIENTED_EDGE('',*,*,#127,.F.);
#435=ORIENTED_EDGE('',*,*,#71,.T.);
#436=ORIENTED_EDGE('',*,*,#95,.T.);
#437=CARTESIAN_POINT('',(2.8421709430404E-014,1.96536698850326E-014,-4.00000000000003));
#438=DIRECTION('',(-0.0,-0.0,-1.0));
#439=DIRECTION('',(-1.0,-4.71615427886617E-014,0.0));
#440=SURFACE_STYLE_FILL_AREA(#547);
#441=ORIENTED_EDGE('',*,*,#89,.T.);
#442=ORIENTED_EDGE('',*,*,#121,.F.);
#443=ORIENTED_EDGE('',*,*,#147,.T.);
#444=ORIENTED_EDGE('',*,*,#77,.T.);
#445=CARTESIAN_POINT('',(2.8421709430404E-014,1.96536698850326E-014,1.74999999999997));
#446=DIRECTION('',(-0.0,-0.0,-1.0));
#447=DIRECTION('',(-1.0,-4.71615427886617E-014,0.0));
#448=DIRECTION('',(0.0,0.0,1.0));
#449=CARTESIAN_POINT('',(2.8421709430404E-014,1.96536698850326E-014,-8.00000000000003));
#450=DIRECTION('',(0.0,0.0,1.0));
#451=DIRECTION('',(-1.0,-4.71615427886617E-014,0.0));
#452=SURFACE_STYLE_FILL_AREA(#548);
#453=ORIENTED_EDGE('',*,*,#149,.F.);
#454=ORIENTED_EDGE('',*,*,#77,.F.);
#455=ORIENTED_EDGE('',*,*,#101,.T.);
#456=ORIENTED_EDGE('',*,*,#127,.T.);
#457=CARTESIAN_POINT('',(-11.7499999999933,2.06027398092441E-014,-2.8421709430404E-014));
#458=DIRECTION('',(0.0,0.0,-1.0));
#459=DIRECTION('',(1.0,-1.22460635382238E-016,0.0));
#460=CARTESIAN_POINT('',(2.8421709430404E-014,1.96536698850326E-014,-2.8421709430404E-014));
#461=DIRECTION('',(0.0,0.0,1.0));
#462=DIRECTION('',(-1.0,-4.71615427886617E-014,0.0));
#463=CARTESIAN_POINT('',(2.8421709430404E-014,1.96536698850326E-014,3.49999999999997));
#464=DIRECTION('',(0.0,0.0,1.0));
#465=DIRECTION('',(-1.0,-4.71615427886617E-014,0.0));
#466=SURFACE_STYLE_FILL_AREA(#549);
#467=ORIENTED_EDGE('',*,*,#109,.F.);
#468=ORIENTED_EDGE('',*,*,#73,.T.);
#469=ORIENTED_EDGE('',*,*,#131,.F.);
#470=CARTESIAN_POINT('',(-7.74975449830139E-014,2.16130400511484E-014,-39.9999999999998));
#471=DIRECTION('',(0.0,0.0,1.0));
#472=DIRECTION('',(-1.0,1.22460635382238E-016,0.0));
#473=CARTESIAN_POINT('',(-7.74975449830139E-014,2.16130400511484E-014,-39.9999999999998));
#474=DIRECTION('',(2.44921270764475E-016,1.0,0.0));
#475=DIRECTION('',(0.0,-0.0,-1.0));
#476=CARTESIAN_POINT('',(2.8421709430404E-014,1.96536698850326E-014,3.49999999999997));
#477=DIRECTION('',(0.0,0.0,1.0));
#478=DIRECTION('',(-1.0,-4.71615427886617E-014,0.0));
#479=SURFACE_STYLE_FILL_AREA(#550);
#480=ORIENTED_EDGE('',*,*,#145,.F.);
#481=ORIENTED_EDGE('',*,*,#95,.F.);
#482=CARTESIAN_POINT('',(-2.99999999999665,2.00210517911789E-014,-8.00000000000003));
#483=DIRECTION('',(0.0,0.0,-1.0));
#484=DIRECTION('',(1.0,-1.22460635382238E-016,0.0));
#485=SURFACE_STYLE_FILL_AREA(#551);
#486=ORIENTED_EDGE('',*,*,#79,.T.);
#487=ORIENTED_EDGE('',*,*,#81,.F.);
#488=ORIENTED_EDGE('',*,*,#143,.T.);
#489=ORIENTED_EDGE('',*,*,#113,.T.);
#490=CARTESIAN_POINT('',(2.8421709430404E-014,1.96536698850326E-014,4.97579385079468));
#491=DIRECTION('',(-0.0,-0.0,-1.0));
#492=DIRECTION('',(-1.0,-4.71615427886617E-014,0.0));
#493=SURFACE_STYLE_FILL_AREA(#552);
#494=ORIENTED_EDGE('',*,*,#69,.F.);
#495=ORIENTED_EDGE('',*,*,#145,.T.);
#496=ORIENTED_EDGE('',*,*,#71,.F.);
#497=ORIENTED_EDGE('',*,*,#101,.F.);
#498=CARTESIAN_POINT('',(2.8421709430404E-014,1.96536698850326E-014,-4.00000000000003));
#499=DIRECTION('',(-0.0,-0.0,-1.0));
#500=DIRECTION('',(-1.0,-4.71615427886617E-014,0.0));
#501=CARTESIAN_POINT('',(2.8421709430404E-014,1.96536698850326E-014,3.49999999999997));
#502=DIRECTION('',(0.0,0.0,1.0));
#503=DIRECTION('',(-1.0,-4.71615427886617E-014,0.0));
#504=SURFACE_STYLE_FILL_AREA(#553);
#505=CARTESIAN_POINT('',(2.8421709430404E-014,1.96536698850326E-014,-2.8421709430404E-014));
#506=DIRECTION('',(0.0,0.0,1.0));
#507=DIRECTION('',(-1.0,-4.71615427886617E-014,0.0));
#508=CARTESIAN_POINT('',(2.8421709430404E-014,1.96536698850326E-014,3.49999999999997));
#509=DIRECTION('',(0.0,0.0,1.0));
#510=DIRECTION('',(-1.0,-4.71615427886617E-014,0.0));
#511=CARTESIAN_POINT('',(-7.74975449830139E-014,2.16130400511484E-014,-39.9999999999998));
#512=DIRECTION('',(2.44921270764475E-016,1.0,0.0));
#513=DIRECTION('',(0.0,-0.0,-1.0));
#514=SURFACE_STYLE_FILL_AREA(#554);
#515=ORIENTED_EDGE('',*,*,#89,.F.);
#516=ORIENTED_EDGE('',*,*,#149,.T.);
#517=ORIENTED_EDGE('',*,*,#147,.F.);
#518=ORIENTED_EDGE('',*,*,#103,.F.);
#519=CARTESIAN_POINT('',(2.8421709430404E-014,1.96536698850326E-014,1.74999999999997));
#520=DIRECTION('',(-0.0,-0.0,-1.0));
#521=DIRECTION('',(-1.0,-4.71615427886617E-014,0.0));
#522=SURFACE_STYLE_FILL_AREA(#555);
#523=ORIENTED_EDGE('',*,*,#109,.T.);
#524=ORIENTED_EDGE('',*,*,#131,.T.);
#525=ORIENTED_EDGE('',*,*,#81,.T.);
#526=CARTESIAN_POINT('',(-7.74975449830139E-014,2.16130400511484E-014,-39.9999999999998));
#527=DIRECTION('',(0.0,0.0,1.0));
#528=DIRECTION('',(-1.0,1.22460635382238E-016,0.0));
#529=DIRECTION('',(-0.0,-0.0,-1.0));
#530=CARTESIAN_POINT('',(2.8421709430404E-014,1.96536698850326E-014,-8.00000000000003));
#531=DIRECTION('',(0.0,0.0,1.0));
#532=DIRECTION('',(-1.0,-4.71615427886617E-014,0.0));
#533=DIRECTION('',(-0.0,-0.0,-1.0));
#534=CARTESIAN_POINT('',(2.8421709430404E-014,1.96536698850326E-014,-2.8421709430404E-014));
#535=DIRECTION('',(0.0,0.0,1.0));
#536=DIRECTION('',(-1.0,-4.71615427886617E-014,0.0));
#537=SURFACE_STYLE_FILL_AREA(#556);
#538=ORIENTED_EDGE('',*,*,#129,.F.);
#539=ORIENTED_EDGE('',*,*,#113,.F.);
#540=ORIENTED_EDGE('',*,*,#103,.T.);
#541=ORIENTED_EDGE('',*,*,#121,.T.);
#542=CARTESIAN_POINT('',(-17.9999999999933,2.11538126684642E-014,3.49999999999997));
#543=DIRECTION('',(0.0,0.0,-1.0));
#544=DIRECTION('',(1.0,-1.22460635382238E-016,0.0));
#545=FILL_AREA_STYLE('',(#557));
#546=FILL_AREA_STYLE('',(#558));
#547=FILL_AREA_STYLE('',(#559));
#548=FILL_AREA_STYLE('',(#560));
#549=FILL_AREA_STYLE('',(#561));
#550=FILL_AREA_STYLE('',(#562));
#551=FILL_AREA_STYLE('',(#563));
#552=FILL_AREA_STYLE('',(#564));
#553=FILL_AREA_STYLE('',(#565));
#554=FILL_AREA_STYLE('',(#566));
#555=FILL_AREA_STYLE('',(#567));
#556=FILL_AREA_STYLE('',(#568));
#557=FILL_AREA_STYLE_COLOUR('',#569);
#558=FILL_AREA_STYLE_COLOUR('',#570);
#559=FILL_AREA_STYLE_COLOUR('',#571);
#560=FILL_AREA_STYLE_COLOUR('',#572);
#561=FILL_AREA_STYLE_COLOUR('',#573);
#562=FILL_AREA_STYLE_COLOUR('',#574);
#563=FILL_AREA_STYLE_COLOUR('',#575);
#564=FILL_AREA_STYLE_COLOUR('',#576);
#565=FILL_AREA_STYLE_COLOUR('',#577);
#566=FILL_AREA_STYLE_COLOUR('',#578);
#567=FILL_AREA_STYLE_COLOUR('',#579);
#568=FILL_AREA_STYLE_COLOUR('',#580);
#569=COLOUR_RGB('',0.509803950786591,0.509803950786591,0.588235318660736);
#570=COLOUR_RGB('',0.509803950786591,0.509803950786591,0.588235318660736);
#571=COLOUR_RGB('',0.509803950786591,0.509803950786591,0.588235318660736);
#572=COLOUR_RGB('',0.509803950786591,0.509803950786591,0.588235318660736);
#573=COLOUR_RGB('',0.509803950786591,0.509803950786591,0.588235318660736);
#574=COLOUR_RGB('',0.509803950786591,0.509803950786591,0.588235318660736);
#575=COLOUR_RGB('',0.509803950786591,0.509803950786591,0.588235318660736);
#576=COLOUR_RGB('',0.509803950786591,0.509803950786591,0.588235318660736);
#577=COLOUR_RGB('',0.509803950786591,0.509803950786591,0.588235318660736);
#578=COLOUR_RGB('',0.509803950786591,0.509803950786591,0.588235318660736);
#579=COLOUR_RGB('',0.509803950786591,0.509803950786591,0.588235318660736);
#580=COLOUR_RGB('',0.509803950786591,0.509803950786591,0.588235318660736);
ENDSEC;
END-ISO-10303-21;
