ISO-10303-21;
HEADER;
FILE_DESCRIPTION(('STEP AP214'),'1');
FILE_NAME('HALDERN_EH_24450_0316.stp','2017-05-09T08:15:20',('TraceParts'),('TraceParts S.A.'),'Spatial InterOp 3D',' ',' ');
FILE_SCHEMA(('automotive_design'));
ENDSEC;
DATA;
#1=MECHANICAL_DESIGN_GEOMETRIC_PRESENTATION_REPRESENTATION(' ',(#10,#11,#12,#13,#14,#15,#16,#17,#18,#19,#20,#21,#22,#23,#24,#25,#26,#27,#28),#6);
#2=PRODUCT_DEFINITION_CONTEXT('',#29,'design');
#3=APPLICATION_PROTOCOL_DEFINITION('INTERNATIONAL STANDARD','automotive_design',1994,#29);
#4=PRODUCT_CATEGORY_RELATIONSHIP('NONE','NONE',#30,#31);
#5=SHAPE_DEFINITION_REPRESENTATION(#32,#33);
#6= (GEOMETRIC_REPRESENTATION_CONTEXT(3)GLOBAL_UNCERTAINTY_ASSIGNED_CONTEXT((#36))GLOBAL_UNIT_ASSIGNED_CONTEXT((#38,#39,#40))REPRESENTATION_CONTEXT('NONE','WORKSPACE'));
#10=STYLED_ITEM('',(#42),#43);
#11=STYLED_ITEM('',(#44),#45);
#12=STYLED_ITEM('',(#46),#47);
#13=STYLED_ITEM('',(#48),#49);
#14=STYLED_ITEM('',(#50),#51);
#15=STYLED_ITEM('',(#52),#53);
#16=STYLED_ITEM('',(#54),#55);
#17=STYLED_ITEM('',(#56),#57);
#18=STYLED_ITEM('',(#58),#59);
#19=STYLED_ITEM('',(#60),#61);
#20=STYLED_ITEM('',(#62),#63);
#21=STYLED_ITEM('',(#64),#65);
#22=STYLED_ITEM('',(#66),#67);
#23=STYLED_ITEM('',(#68),#69);
#24=STYLED_ITEM('',(#70),#71);
#25=STYLED_ITEM('',(#72),#73);
#26=STYLED_ITEM('',(#74),#75);
#27=STYLED_ITEM('',(#76),#77);
#28=STYLED_ITEM('',(#78),#79);
#29=APPLICATION_CONTEXT(' ');
#30=PRODUCT_CATEGORY('part','NONE');
#31=PRODUCT_RELATED_PRODUCT_CATEGORY('detail',' ',(#80));
#32=PRODUCT_DEFINITION_SHAPE('NONE','NONE',#81);
#33=ADVANCED_BREP_SHAPE_REPRESENTATION('HALDERN_EH_24450_0316',(#79,#82),#6);
#36=UNCERTAINTY_MEASURE_WITH_UNIT(LENGTH_MEASURE(1.0E-006),#38,'','');
#38= (CONVERSION_BASED_UNIT('MILLIMETRE',#85)LENGTH_UNIT()NAMED_UNIT(#88));
#39= (NAMED_UNIT(#90)PLANE_ANGLE_UNIT()SI_UNIT($,.RADIAN.));
#40= (NAMED_UNIT(#90)SOLID_ANGLE_UNIT()SI_UNIT($,.STERADIAN.));
#42=PRESENTATION_STYLE_ASSIGNMENT((#96));
#43=ADVANCED_FACE('',(#97),#98,.F.);
#44=PRESENTATION_STYLE_ASSIGNMENT((#99));
#45=ADVANCED_FACE('',(#100),#101,.F.);
#46=PRESENTATION_STYLE_ASSIGNMENT((#102));
#47=ADVANCED_FACE('',(#103),#104,.T.);
#48=PRESENTATION_STYLE_ASSIGNMENT((#105));
#49=ADVANCED_FACE('',(#106),#107,.T.);
#50=PRESENTATION_STYLE_ASSIGNMENT((#108));
#51=ADVANCED_FACE('',(#109),#110,.F.);
#52=PRESENTATION_STYLE_ASSIGNMENT((#111));
#53=ADVANCED_FACE('',(#112),#113,.T.);
#54=PRESENTATION_STYLE_ASSIGNMENT((#114));
#55=ADVANCED_FACE('',(#115),#116,.T.);
#56=PRESENTATION_STYLE_ASSIGNMENT((#117));
#57=ADVANCED_FACE('',(#118),#119,.T.);
#58=PRESENTATION_STYLE_ASSIGNMENT((#120));
#59=ADVANCED_FACE('',(#121),#122,.T.);
#60=PRESENTATION_STYLE_ASSIGNMENT((#123));
#61=ADVANCED_FACE('',(#124),#125,.T.);
#62=PRESENTATION_STYLE_ASSIGNMENT((#126));
#63=ADVANCED_FACE('',(#127),#128,.T.);
#64=PRESENTATION_STYLE_ASSIGNMENT((#129));
#65=ADVANCED_FACE('',(#130),#131,.T.);
#66=PRESENTATION_STYLE_ASSIGNMENT((#132));
#67=ADVANCED_FACE('',(#133),#134,.T.);
#68=PRESENTATION_STYLE_ASSIGNMENT((#135));
#69=ADVANCED_FACE('',(#136,#137),#138,.T.);
#70=PRESENTATION_STYLE_ASSIGNMENT((#139));
#71=ADVANCED_FACE('',(#140),#141,.T.);
#72=PRESENTATION_STYLE_ASSIGNMENT((#142));
#73=ADVANCED_FACE('',(#143),#144,.F.);
#74=PRESENTATION_STYLE_ASSIGNMENT((#145));
#75=ADVANCED_FACE('',(#146),#147,.T.);
#76=PRESENTATION_STYLE_ASSIGNMENT((#148));
#77=ADVANCED_FACE('',(#149),#150,.T.);
#78=PRESENTATION_STYLE_ASSIGNMENT((#151));
#79=MANIFOLD_SOLID_BREP('HALDERN_EH_24450_0316',#152);
#80=PRODUCT('HALDERN_EH_24450_0316','HALDERN_EH_24450_0316','PART-HALDERN_EH_24450_0316-DESC',(#153));
#81=PRODUCT_DEFINITION('NONE','NONE',#154,#2);
#82=AXIS2_PLACEMENT_3D('',#155,#156,#157);
#85=LENGTH_MEASURE_WITH_UNIT(LENGTH_MEASURE(1.0),#158);
#88=DIMENSIONAL_EXPONENTS(1.0,0.0,0.0,0.0,0.0,0.0,0.0);
#90=DIMENSIONAL_EXPONENTS(0.0,0.0,0.0,0.0,0.0,0.0,0.0);
#96=SURFACE_STYLE_USAGE(.BOTH.,#159);
#97=FACE_OUTER_BOUND('',#160,.T.);
#98=TOROIDAL_SURFACE('',#161,23.0107771985022,19.0);
#99=SURFACE_STYLE_USAGE(.BOTH.,#162);
#100=FACE_OUTER_BOUND('',#163,.T.);
#101=TOROIDAL_SURFACE('',#164,23.0107771985022,19.0);
#102=SURFACE_STYLE_USAGE(.BOTH.,#165);
#103=FACE_OUTER_BOUND('',#166,.T.);
#104=SPHERICAL_SURFACE('',#167,2.99999999999999);
#105=SURFACE_STYLE_USAGE(.BOTH.,#168);
#106=FACE_OUTER_BOUND('',#169,.T.);
#107=TOROIDAL_SURFACE('',#170,-20.0,28.0);
#108=SURFACE_STYLE_USAGE(.BOTH.,#171);
#109=FACE_OUTER_BOUND('',#172,.T.);
#110=TOROIDAL_SURFACE('',#173,23.0107771985022,19.0);
#111=SURFACE_STYLE_USAGE(.BOTH.,#174);
#112=FACE_OUTER_BOUND('',#175,.T.);
#113=CYLINDRICAL_SURFACE('',#176,4.99999999999999);
#114=SURFACE_STYLE_USAGE(.BOTH.,#177);
#115=FACE_OUTER_BOUND('',#178,.T.);
#116=CYLINDRICAL_SURFACE('',#179,2.99999999999999);
#117=SURFACE_STYLE_USAGE(.BOTH.,#180);
#118=FACE_OUTER_BOUND('',#181,.T.);
#119=CONICAL_SURFACE('',#182,2.74999999999999,0.785398163397448);
#120=SURFACE_STYLE_USAGE(.BOTH.,#183);
#121=FACE_OUTER_BOUND('',#184,.T.);
#122=CONICAL_SURFACE('',#185,2.72931706131736,1.0471975511966);
#123=SURFACE_STYLE_USAGE(.BOTH.,#186);
#124=FACE_OUTER_BOUND('',#187,.T.);
#125=CONICAL_SURFACE('',#188,2.72931706131736,1.0471975511966);
#126=SURFACE_STYLE_USAGE(.BOTH.,#189);
#127=FACE_OUTER_BOUND('',#190,.T.);
#128=PLANE('',#191);
#129=SURFACE_STYLE_USAGE(.BOTH.,#192);
#130=FACE_OUTER_BOUND('',#193,.T.);
#131=CONICAL_SURFACE('',#194,2.74999999999999,0.785398163397448);
#132=SURFACE_STYLE_USAGE(.BOTH.,#195);
#133=FACE_OUTER_BOUND('',#196,.T.);
#134=CYLINDRICAL_SURFACE('',#197,2.99999999999999);
#135=SURFACE_STYLE_USAGE(.BOTH.,#198);
#136=FACE_OUTER_BOUND('',#199,.T.);
#137=FACE_BOUND('',#200,.T.);
#138=PLANE('',#201);
#139=SURFACE_STYLE_USAGE(.BOTH.,#202);
#140=FACE_OUTER_BOUND('',#203,.T.);
#141=CYLINDRICAL_SURFACE('',#204,4.99999999999999);
#142=SURFACE_STYLE_USAGE(.BOTH.,#205);
#143=FACE_OUTER_BOUND('',#206,.T.);
#144=TOROIDAL_SURFACE('',#207,23.0107771985022,19.0);
#145=SURFACE_STYLE_USAGE(.BOTH.,#208);
#146=FACE_OUTER_BOUND('',#209,.T.);
#147=TOROIDAL_SURFACE('',#210,-20.0,28.0);
#148=SURFACE_STYLE_USAGE(.BOTH.,#211);
#149=FACE_OUTER_BOUND('',#212,.T.);
#150=SPHERICAL_SURFACE('',#213,2.99999999999999);
#151=SURFACE_STYLE_USAGE(.BOTH.,#214);
#152=CLOSED_SHELL('',(#43,#45,#47,#49,#51,#53,#55,#57,#59,#61,#63,#65,#67,#69,#71,#73,#75,#77));
#153=PRODUCT_CONTEXT('',#29,'mechanical');
#154=PRODUCT_DEFINITION_FORMATION_WITH_SPECIFIED_SOURCE(' ','NONE',#80,.NOT_KNOWN.);
#155=CARTESIAN_POINT('',(0.0,0.0,0.0));
#156=DIRECTION('',(0.0,0.0,1.0));
#157=DIRECTION('',(1.0,0.0,0.0));
#158= (NAMED_UNIT(#88)LENGTH_UNIT()SI_UNIT(.MILLI.,.METRE.));
#159=SURFACE_SIDE_STYLE('',(#216));
#160=EDGE_LOOP('',(#217,#218,#219,#220));
#161=AXIS2_PLACEMENT_3D('',#221,#222,#223);
#162=SURFACE_SIDE_STYLE('',(#224));
#163=EDGE_LOOP('',(#225,#226,#227,#228));
#164=AXIS2_PLACEMENT_3D('',#229,#230,#231);
#165=SURFACE_SIDE_STYLE('',(#232));
#166=EDGE_LOOP('',(#233,#234,#235));
#167=AXIS2_PLACEMENT_3D('',#236,#237,#238);
#168=SURFACE_SIDE_STYLE('',(#239));
#169=EDGE_LOOP('',(#240,#241,#242,#243));
#170=AXIS2_PLACEMENT_3D('',#244,#245,#246);
#171=SURFACE_SIDE_STYLE('',(#247));
#172=EDGE_LOOP('',(#248,#249,#250,#251));
#173=AXIS2_PLACEMENT_3D('',#252,#253,#254);
#174=SURFACE_SIDE_STYLE('',(#255));
#175=EDGE_LOOP('',(#256,#257,#258,#259));
#176=AXIS2_PLACEMENT_3D('',#260,#261,#262);
#177=SURFACE_SIDE_STYLE('',(#263));
#178=EDGE_LOOP('',(#264,#265,#266,#267));
#179=AXIS2_PLACEMENT_3D('',#268,#269,#270);
#180=SURFACE_SIDE_STYLE('',(#271));
#181=EDGE_LOOP('',(#272,#273,#274,#275));
#182=AXIS2_PLACEMENT_3D('',#276,#277,#278);
#183=SURFACE_SIDE_STYLE('',(#279));
#184=EDGE_LOOP('',(#280,#281,#282,#283));
#185=AXIS2_PLACEMENT_3D('',#284,#285,#286);
#186=SURFACE_SIDE_STYLE('',(#287));
#187=EDGE_LOOP('',(#288,#289,#290,#291));
#188=AXIS2_PLACEMENT_3D('',#292,#293,#294);
#189=SURFACE_SIDE_STYLE('',(#295));
#190=EDGE_LOOP('',(#296,#297));
#191=AXIS2_PLACEMENT_3D('',#298,#299,#300);
#192=SURFACE_SIDE_STYLE('',(#301));
#193=EDGE_LOOP('',(#302,#303,#304,#305));
#194=AXIS2_PLACEMENT_3D('',#306,#307,#308);
#195=SURFACE_SIDE_STYLE('',(#309));
#196=EDGE_LOOP('',(#310,#311,#312,#313));
#197=AXIS2_PLACEMENT_3D('',#314,#315,#316);
#198=SURFACE_SIDE_STYLE('',(#317));
#199=EDGE_LOOP('',(#318,#319));
#200=EDGE_LOOP('',(#320,#321));
#201=AXIS2_PLACEMENT_3D('',#322,#323,#324);
#202=SURFACE_SIDE_STYLE('',(#325));
#203=EDGE_LOOP('',(#326,#327,#328,#329));
#204=AXIS2_PLACEMENT_3D('',#330,#331,#332);
#205=SURFACE_SIDE_STYLE('',(#333));
#206=EDGE_LOOP('',(#334,#335,#336,#337));
#207=AXIS2_PLACEMENT_3D('',#338,#339,#340);
#208=SURFACE_SIDE_STYLE('',(#341));
#209=EDGE_LOOP('',(#342,#343,#344,#345));
#210=AXIS2_PLACEMENT_3D('',#346,#347,#348);
#211=SURFACE_SIDE_STYLE('',(#349));
#212=EDGE_LOOP('',(#350,#351,#352));
#213=AXIS2_PLACEMENT_3D('',#353,#354,#355);
#214=SURFACE_SIDE_STYLE('',(#356));
#216=SURFACE_STYLE_FILL_AREA(#357);
#217=ORIENTED_EDGE('',*,*,#358,.F.);
#218=ORIENTED_EDGE('',*,*,#359,.T.);
#219=ORIENTED_EDGE('',*,*,#360,.F.);
#220=ORIENTED_EDGE('',*,*,#361,.T.);
#221=CARTESIAN_POINT('',(13.0507771985023,-5.6843418860808E-014,-5.15402429212889E-014));
#222=DIRECTION('',(1.0,0.0,0.0));
#223=DIRECTION('',(0.0,1.0,-1.22460635382238E-016));
#224=SURFACE_STYLE_FILL_AREA(#362);
#225=ORIENTED_EDGE('',*,*,#363,.F.);
#226=ORIENTED_EDGE('',*,*,#361,.F.);
#227=ORIENTED_EDGE('',*,*,#364,.F.);
#228=ORIENTED_EDGE('',*,*,#359,.F.);
#229=CARTESIAN_POINT('',(13.0507771985023,-5.6843418860808E-014,-5.15402429212889E-014));
#230=DIRECTION('',(1.0,0.0,0.0));
#231=DIRECTION('',(0.0,1.0,-1.22460635382238E-016));
#232=SURFACE_STYLE_FILL_AREA(#365);
#233=ORIENTED_EDGE('',*,*,#366,.F.);
#234=ORIENTED_EDGE('',*,*,#367,.F.);
#235=ORIENTED_EDGE('',*,*,#368,.T.);
#236=CARTESIAN_POINT('',(47.0000000000001,-4.20862752796123E-014,-4.7988884495204E-014));
#237=DIRECTION('',(1.0,0.0,0.0));
#238=DIRECTION('',(0.0,1.0,-1.22460635382238E-016));
#239=SURFACE_STYLE_FILL_AREA(#369);
#240=ORIENTED_EDGE('',*,*,#370,.F.);
#241=ORIENTED_EDGE('',*,*,#360,.T.);
#242=ORIENTED_EDGE('',*,*,#371,.F.);
#243=ORIENTED_EDGE('',*,*,#368,.F.);
#244=CARTESIAN_POINT('',(32.0000000000001,-5.6843418860808E-014,-5.15402429212889E-014));
#245=DIRECTION('',(1.0,0.0,0.0));
#246=DIRECTION('',(0.0,1.0,-1.22460635382238E-016));
#247=SURFACE_STYLE_FILL_AREA(#372);
#248=ORIENTED_EDGE('',*,*,#363,.T.);
#249=ORIENTED_EDGE('',*,*,#373,.F.);
#250=ORIENTED_EDGE('',*,*,#374,.T.);
#251=ORIENTED_EDGE('',*,*,#375,.F.);
#252=CARTESIAN_POINT('',(13.0507771985023,-5.6843418860808E-014,-5.15402429212889E-014));
#253=DIRECTION('',(1.0,0.0,0.0));
#254=DIRECTION('',(0.0,1.0,-1.22460635382238E-016));
#255=SURFACE_STYLE_FILL_AREA(#376);
#256=ORIENTED_EDGE('',*,*,#377,.F.);
#257=ORIENTED_EDGE('',*,*,#378,.T.);
#258=ORIENTED_EDGE('',*,*,#379,.F.);
#259=ORIENTED_EDGE('',*,*,#380,.F.);
#260=CARTESIAN_POINT('',(3.50000000000006,-5.6843418860808E-014,-5.15402429212889E-014));
#261=DIRECTION('',(1.0,0.0,-0.0));
#262=DIRECTION('',(0.0,1.0,1.09144867148275E-012));
#263=SURFACE_STYLE_FILL_AREA(#381);
#264=ORIENTED_EDGE('',*,*,#382,.F.);
#265=ORIENTED_EDGE('',*,*,#383,.T.);
#266=ORIENTED_EDGE('',*,*,#384,.F.);
#267=ORIENTED_EDGE('',*,*,#385,.F.);
#268=CARTESIAN_POINT('',(-5.24999999999994,-5.6843418860808E-014,-5.15402429212889E-014));
#269=DIRECTION('',(1.0,0.0,-0.0));
#270=DIRECTION('',(0.0,1.0,1.09144867148275E-012));
#271=SURFACE_STYLE_FILL_AREA(#386);
#272=ORIENTED_EDGE('',*,*,#387,.F.);
#273=ORIENTED_EDGE('',*,*,#388,.T.);
#274=ORIENTED_EDGE('',*,*,#389,.F.);
#275=ORIENTED_EDGE('',*,*,#383,.F.);
#276=CARTESIAN_POINT('',(-10.7499999999999,-5.6843418860808E-014,-5.15402429212889E-014));
#277=DIRECTION('',(1.0,-0.0,-0.0));
#278=DIRECTION('',(0.0,1.0,1.09144867148275E-012));
#279=SURFACE_STYLE_FILL_AREA(#390);
#280=ORIENTED_EDGE('',*,*,#391,.F.);
#281=ORIENTED_EDGE('',*,*,#388,.F.);
#282=ORIENTED_EDGE('',*,*,#392,.F.);
#283=ORIENTED_EDGE('',*,*,#393,.F.);
#284=CARTESIAN_POINT('',(-10.8437211324865,0.0,0.0));
#285=DIRECTION('',(1.0,0.0,-0.0));
#286=DIRECTION('',(0.0,-1.0,2.38549780877496E-016));
#287=SURFACE_STYLE_FILL_AREA(#394);
#288=ORIENTED_EDGE('',*,*,#391,.T.);
#289=ORIENTED_EDGE('',*,*,#395,.F.);
#290=ORIENTED_EDGE('',*,*,#392,.T.);
#291=ORIENTED_EDGE('',*,*,#396,.F.);
#292=CARTESIAN_POINT('',(-10.8437211324865,0.0,0.0));
#293=DIRECTION('',(1.0,0.0,-0.0));
#294=DIRECTION('',(0.0,-1.0,2.38549780877496E-016));
#295=SURFACE_STYLE_FILL_AREA(#397);
#296=ORIENTED_EDGE('',*,*,#393,.T.);
#297=ORIENTED_EDGE('',*,*,#395,.T.);
#298=CARTESIAN_POINT('',(-10.9999999999999,1.24999999999993,-5.16933187155167E-014));
#299=DIRECTION('',(-1.0,0.0,0.0));
#300=DIRECTION('',(0.0,-1.0,1.22460635382238E-016));
#301=SURFACE_STYLE_FILL_AREA(#398);
#302=ORIENTED_EDGE('',*,*,#387,.T.);
#303=ORIENTED_EDGE('',*,*,#399,.F.);
#304=ORIENTED_EDGE('',*,*,#389,.T.);
#305=ORIENTED_EDGE('',*,*,#396,.T.);
#306=CARTESIAN_POINT('',(-10.7499999999999,-5.6843418860808E-014,-5.15402429212889E-014));
#307=DIRECTION('',(1.0,-0.0,-0.0));
#308=DIRECTION('',(0.0,1.0,1.09144867148275E-012));
#309=SURFACE_STYLE_FILL_AREA(#400);
#310=ORIENTED_EDGE('',*,*,#382,.T.);
#311=ORIENTED_EDGE('',*,*,#401,.F.);
#312=ORIENTED_EDGE('',*,*,#384,.T.);
#313=ORIENTED_EDGE('',*,*,#399,.T.);
#314=CARTESIAN_POINT('',(-5.24999999999994,-5.6843418860808E-014,-5.15402429212889E-014));
#315=DIRECTION('',(1.0,0.0,-0.0));
#316=DIRECTION('',(0.0,1.0,1.09144867148275E-012));
#317=SURFACE_STYLE_FILL_AREA(#402);
#318=ORIENTED_EDGE('',*,*,#378,.F.);
#319=ORIENTED_EDGE('',*,*,#403,.F.);
#320=ORIENTED_EDGE('',*,*,#385,.T.);
#321=ORIENTED_EDGE('',*,*,#401,.T.);
#322=CARTESIAN_POINT('',(5.6843418860808E-014,3.99999999999993,-5.13565519682155E-014));
#323=DIRECTION('',(-1.0,0.0,0.0));
#324=DIRECTION('',(0.0,-1.0,1.22460635382238E-016));
#325=SURFACE_STYLE_FILL_AREA(#404);
#326=ORIENTED_EDGE('',*,*,#377,.T.);
#327=ORIENTED_EDGE('',*,*,#374,.F.);
#328=ORIENTED_EDGE('',*,*,#379,.T.);
#329=ORIENTED_EDGE('',*,*,#403,.T.);
#330=CARTESIAN_POINT('',(3.50000000000006,-5.6843418860808E-014,-5.15402429212889E-014));
#331=DIRECTION('',(1.0,0.0,-0.0));
#332=DIRECTION('',(0.0,1.0,1.09144867148275E-012));
#333=SURFACE_STYLE_FILL_AREA(#405);
#334=ORIENTED_EDGE('',*,*,#358,.T.);
#335=ORIENTED_EDGE('',*,*,#375,.T.);
#336=ORIENTED_EDGE('',*,*,#380,.T.);
#337=ORIENTED_EDGE('',*,*,#373,.T.);
#338=CARTESIAN_POINT('',(13.0507771985023,-5.6843418860808E-014,-5.15402429212889E-014));
#339=DIRECTION('',(1.0,0.0,0.0));
#340=DIRECTION('',(0.0,1.0,-1.22460635382238E-016));
#341=SURFACE_STYLE_FILL_AREA(#406);
#342=ORIENTED_EDGE('',*,*,#370,.T.);
#343=ORIENTED_EDGE('',*,*,#407,.F.);
#344=ORIENTED_EDGE('',*,*,#371,.T.);
#345=ORIENTED_EDGE('',*,*,#364,.T.);
#346=CARTESIAN_POINT('',(32.0000000000001,-5.6843418860808E-014,-5.15402429212889E-014));
#347=DIRECTION('',(1.0,0.0,0.0));
#348=DIRECTION('',(0.0,1.0,-1.22460635382238E-016));
#349=SURFACE_STYLE_FILL_AREA(#408);
#350=ORIENTED_EDGE('',*,*,#366,.T.);
#351=ORIENTED_EDGE('',*,*,#407,.T.);
#352=ORIENTED_EDGE('',*,*,#367,.T.);
#353=CARTESIAN_POINT('',(47.0000000000001,-4.20862752796123E-014,-4.7988884495204E-014));
#354=DIRECTION('',(1.0,0.0,0.0));
#355=DIRECTION('',(0.0,1.0,-1.22460635382238E-016));
#356=SURFACE_STYLE_FILL_AREA(#409);
#357=FILL_AREA_STYLE('',(#410));
#358=EDGE_CURVE('',#411,#412,#413,.T.);
#359=EDGE_CURVE('',#411,#414,#415,.T.);
#360=EDGE_CURVE('',#416,#414,#417,.T.);
#361=EDGE_CURVE('',#416,#412,#418,.T.);
#362=FILL_AREA_STYLE('',(#419));
#363=EDGE_CURVE('',#412,#411,#420,.T.);
#364=EDGE_CURVE('',#414,#416,#421,.T.);
#365=FILL_AREA_STYLE('',(#422));
#366=EDGE_CURVE('',#423,#424,#425,.T.);
#367=EDGE_CURVE('',#426,#423,#427,.T.);
#368=EDGE_CURVE('',#426,#424,#428,.T.);
#369=FILL_AREA_STYLE('',(#429));
#370=EDGE_CURVE('',#416,#426,#430,.T.);
#371=EDGE_CURVE('',#424,#414,#431,.T.);
#372=FILL_AREA_STYLE('',(#432));
#373=EDGE_CURVE('',#433,#411,#434,.T.);
#374=EDGE_CURVE('',#433,#435,#436,.T.);
#375=EDGE_CURVE('',#412,#435,#437,.T.);
#376=FILL_AREA_STYLE('',(#438));
#377=EDGE_CURVE('',#439,#435,#440,.T.);
#378=EDGE_CURVE('',#439,#441,#442,.T.);
#379=EDGE_CURVE('',#433,#441,#443,.T.);
#380=EDGE_CURVE('',#435,#433,#444,.T.);
#381=FILL_AREA_STYLE('',(#445));
#382=EDGE_CURVE('',#446,#447,#448,.T.);
#383=EDGE_CURVE('',#446,#449,#450,.T.);
#384=EDGE_CURVE('',#451,#449,#452,.T.);
#385=EDGE_CURVE('',#447,#451,#453,.T.);
#386=FILL_AREA_STYLE('',(#454));
#387=EDGE_CURVE('',#455,#446,#456,.T.);
#388=EDGE_CURVE('',#455,#457,#458,.T.);
#389=EDGE_CURVE('',#449,#457,#459,.T.);
#390=FILL_AREA_STYLE('',(#460));
#391=EDGE_CURVE('',#457,#461,#462,.T.);
#392=EDGE_CURVE('',#463,#455,#464,.T.);
#393=EDGE_CURVE('',#461,#463,#465,.T.);
#394=FILL_AREA_STYLE('',(#466));
#395=EDGE_CURVE('',#463,#461,#467,.T.);
#396=EDGE_CURVE('',#457,#455,#468,.T.);
#397=FILL_AREA_STYLE('',(#469));
#398=FILL_AREA_STYLE('',(#470));
#399=EDGE_CURVE('',#449,#446,#471,.T.);
#400=FILL_AREA_STYLE('',(#472));
#401=EDGE_CURVE('',#451,#447,#473,.T.);
#402=FILL_AREA_STYLE('',(#474));
#403=EDGE_CURVE('',#441,#439,#475,.T.);
#404=FILL_AREA_STYLE('',(#476));
#405=FILL_AREA_STYLE('',(#477));
#406=FILL_AREA_STYLE('',(#478));
#407=EDGE_CURVE('',#424,#426,#479,.T.);
#408=FILL_AREA_STYLE('',(#480));
#409=FILL_AREA_STYLE('',(#481));
#410=FILL_AREA_STYLE_COLOUR('',#482);
#411=VERTEX_POINT('',#483);
#412=VERTEX_POINT('',#484);
#413=CIRCLE('',#485,4.01077719850215);
#414=VERTEX_POINT('',#486);
#415=CIRCLE('',#487,19.0);
#416=VERTEX_POINT('',#488);
#417=CIRCLE('',#489,5.62344173527788);
#418=CIRCLE('',#490,19.0);
#419=FILL_AREA_STYLE_COLOUR('',#491);
#420=CIRCLE('',#492,4.01077719850215);
#421=CIRCLE('',#493,5.62344173527788);
#422=FILL_AREA_STYLE_COLOUR('',#494);
#423=VERTEX_POINT('',#495);
#424=VERTEX_POINT('',#496);
#425=CIRCLE('',#497,2.99999999999999);
#426=VERTEX_POINT('',#498);
#427=CIRCLE('',#499,2.99999999999999);
#428=CIRCLE('',#500,2.40000000000002);
#429=FILL_AREA_STYLE_COLOUR('',#501);
#430=CIRCLE('',#502,28.0);
#431=CIRCLE('',#503,28.0);
#432=FILL_AREA_STYLE_COLOUR('',#504);
#433=VERTEX_POINT('',#505);
#434=CIRCLE('',#506,19.0);
#435=VERTEX_POINT('',#507);
#436=CIRCLE('',#508,4.99999999999998);
#437=CIRCLE('',#509,19.0);
#438=FILL_AREA_STYLE_COLOUR('',#510);
#439=VERTEX_POINT('',#511);
#440=LINE('',#512,#513);
#441=VERTEX_POINT('',#514);
#442=CIRCLE('',#515,4.99999999999999);
#443=LINE('',#516,#517);
#444=CIRCLE('',#518,4.99999999999998);
#445=FILL_AREA_STYLE_COLOUR('',#519);
#446=VERTEX_POINT('',#520);
#447=VERTEX_POINT('',#521);
#448=LINE('',#522,#523);
#449=VERTEX_POINT('',#524);
#450=CIRCLE('',#525,2.99999999999999);
#451=VERTEX_POINT('',#526);
#452=LINE('',#527,#528);
#453=CIRCLE('',#529,2.99999999999999);
#454=FILL_AREA_STYLE_COLOUR('',#530);
#455=VERTEX_POINT('',#531);
#456=LINE('',#532,#533);
#457=VERTEX_POINT('',#534);
#458=CIRCLE('',#535,2.55650683933064);
#459=LINE('',#536,#537);
#460=FILL_AREA_STYLE_COLOUR('',#538);
#461=VERTEX_POINT('',#539);
#462=LINE('',#540,#541);
#463=VERTEX_POINT('',#542);
#464=LINE('',#543,#544);
#465=CIRCLE('',#545,2.45863412263482);
#466=FILL_AREA_STYLE_COLOUR('',#546);
#467=CIRCLE('',#547,2.45863412263482);
#468=CIRCLE('',#548,2.55650683933064);
#469=FILL_AREA_STYLE_COLOUR('',#549);
#470=FILL_AREA_STYLE_COLOUR('',#550);
#471=CIRCLE('',#551,2.99999999999999);
#472=FILL_AREA_STYLE_COLOUR('',#552);
#473=CIRCLE('',#553,2.99999999999999);
#474=FILL_AREA_STYLE_COLOUR('',#554);
#475=CIRCLE('',#555,4.99999999999999);
#476=FILL_AREA_STYLE_COLOUR('',#556);
#477=FILL_AREA_STYLE_COLOUR('',#557);
#478=FILL_AREA_STYLE_COLOUR('',#558);
#479=CIRCLE('',#559,2.40000000000002);
#480=FILL_AREA_STYLE_COLOUR('',#560);
#481=FILL_AREA_STYLE_COLOUR('',#561);
#482=COLOUR_RGB('',0.509803950786591,0.509803950786591,0.588235318660736);
#483=CARTESIAN_POINT('',(13.0507771985023,-4.01077719850221,-5.04633582267392E-014));
#484=CARTESIAN_POINT('',(13.0507771985023,4.0107771985021,-5.25653384584753E-014));
#485=AXIS2_PLACEMENT_3D('',#562,#563,#564);
#486=CARTESIAN_POINT('',(20.7111013097461,-5.62344173527794,-5.01629424254146E-014));
#487=AXIS2_PLACEMENT_3D('',#565,#566,#567);
#488=CARTESIAN_POINT('',(20.7111013097461,5.62344173527782,-5.0287212361695E-014));
#489=AXIS2_PLACEMENT_3D('',#568,#569,#570);
#490=AXIS2_PLACEMENT_3D('',#571,#572,#573);
#491=COLOUR_RGB('',0.509803950786591,0.509803950786591,0.588235318660736);
#492=AXIS2_PLACEMENT_3D('',#574,#575,#576);
#493=AXIS2_PLACEMENT_3D('',#577,#578,#579);
#494=COLOUR_RGB('',0.509803950786591,0.509803950786591,0.588235318660736);
#495=CARTESIAN_POINT('',(50.0000000000001,-5.6843418860808E-014,-4.78051935421306E-014));
#496=CARTESIAN_POINT('',(48.8000000000001,-2.40000000000007,-5.09524318714541E-014));
#497=AXIS2_PLACEMENT_3D('',#580,#581,#582);
#498=CARTESIAN_POINT('',(48.8000000000001,2.39999999999996,-4.81725754482773E-014));
#499=AXIS2_PLACEMENT_3D('',#583,#584,#585);
#500=AXIS2_PLACEMENT_3D('',#586,#587,#588);
#501=COLOUR_RGB('',0.509803950786591,0.509803950786591,0.588235318660736);
#502=AXIS2_PLACEMENT_3D('',#589,#590,#591);
#503=AXIS2_PLACEMENT_3D('',#592,#593,#594);
#504=COLOUR_RGB('',0.509803950786591,0.509803950786591,0.588235318660736);
#505=CARTESIAN_POINT('',(7.00000000000006,-5.00000000000004,-5.50817129715809E-012));
#506=AXIS2_PLACEMENT_3D('',#595,#596,#597);
#507=CARTESIAN_POINT('',(7.00000000000006,4.99999999999993,-5.10504003797599E-014));
#508=AXIS2_PLACEMENT_3D('',#598,#599,#600);
#509=AXIS2_PLACEMENT_3D('',#601,#602,#603);
#510=COLOUR_RGB('',0.509803950786591,0.509803950786591,0.588235318660736);
#511=CARTESIAN_POINT('',(5.6843418860808E-014,4.99999999999993,-5.14790126035977E-014));
#512=CARTESIAN_POINT('',(3.50000000000006,4.99999999999993,5.40509081131552E-012));
#513=VECTOR('',#604,1.0);
#514=CARTESIAN_POINT('',(5.6843418860808E-014,-5.00000000000005,-5.50817129715809E-012));
#515=AXIS2_PLACEMENT_3D('',#605,#606,#607);
#516=CARTESIAN_POINT('',(3.50000000000006,-5.00000000000004,-5.50817129715809E-012));
#517=VECTOR('',#608,1.0);
#518=AXIS2_PLACEMENT_3D('',#609,#610,#611);
#519=COLOUR_RGB('',0.509803950786591,0.509803950786591,0.588235318660736);
#520=CARTESIAN_POINT('',(-10.4999999999999,2.99999999999993,-5.187700966859E-014));
#521=CARTESIAN_POINT('',(5.6843418860808E-014,2.99999999999993,-5.12340913328333E-014));
#522=CARTESIAN_POINT('',(-5.24999999999994,2.99999999999993,3.22243838962079E-012));
#523=VECTOR('',#612,1.0);
#524=CARTESIAN_POINT('',(-10.4999999999999,-3.00000000000005,-3.32551887546337E-012));
#525=AXIS2_PLACEMENT_3D('',#613,#614,#615);
#526=CARTESIAN_POINT('',(5.6843418860808E-014,-3.00000000000005,-3.32551887546337E-012));
#527=CARTESIAN_POINT('',(-5.24999999999994,-3.00000000000005,-3.32551887546337E-012));
#528=VECTOR('',#616,1.0);
#529=AXIS2_PLACEMENT_3D('',#617,#618,#619);
#530=COLOUR_RGB('',0.509803950786591,0.509803950786591,0.588235318660736);
#531=CARTESIAN_POINT('',(-10.9434931606693,2.55650683933058,-9.22925598237567E-016));
#532=CARTESIAN_POINT('',(-10.7499999999999,2.74999999999993,2.94960683690895E-012));
#533=VECTOR('',#620,1.0);
#534=CARTESIAN_POINT('',(-10.9434931606693,-2.5565068393307,-2.84214930779717E-012));
#535=AXIS2_PLACEMENT_3D('',#621,#622,#623);
#536=CARTESIAN_POINT('',(-10.7499999999999,-2.75000000000005,-3.05268732275153E-012));
#537=VECTOR('',#624,1.0);
#538=COLOUR_RGB('',0.509803950786591,0.509803950786591,0.588235318660736);
#539=CARTESIAN_POINT('',(-11.0,-2.45863412263473,6.02171793660598E-016));
#540=CARTESIAN_POINT('',(-10.8437211324865,-2.72931706131736,9.85311888410999E-016));
#541=VECTOR('',#625,1.0);
#542=CARTESIAN_POINT('',(-10.9999999999999,2.45863412263482,-8.8759252804276E-016));
#543=CARTESIAN_POINT('',(-10.8437211324865,2.72931706131736,-9.85311888410952E-016));
#544=VECTOR('',#626,1.0);
#545=AXIS2_PLACEMENT_3D('',#627,#628,#629);
#546=COLOUR_RGB('',0.509803950786591,0.509803950786591,0.588235318660736);
#547=AXIS2_PLACEMENT_3D('',#630,#631,#632);
#548=AXIS2_PLACEMENT_3D('',#633,#634,#635);
#549=COLOUR_RGB('',0.509803950786591,0.509803950786591,0.588235318660736);
#550=COLOUR_RGB('',0.509803950786591,0.509803950786591,0.588235318660736);
#551=AXIS2_PLACEMENT_3D('',#636,#637,#638);
#552=COLOUR_RGB('',0.509803950786591,0.509803950786591,0.588235318660736);
#553=AXIS2_PLACEMENT_3D('',#639,#640,#641);
#554=COLOUR_RGB('',0.509803950786591,0.509803950786591,0.588235318660736);
#555=AXIS2_PLACEMENT_3D('',#642,#643,#644);
#556=COLOUR_RGB('',0.509803950786591,0.509803950786591,0.588235318660736);
#557=COLOUR_RGB('',0.509803950786591,0.509803950786591,0.588235318660736);
#558=COLOUR_RGB('',0.509803950786591,0.509803950786591,0.588235318660736);
#559=AXIS2_PLACEMENT_3D('',#645,#646,#647);
#560=COLOUR_RGB('',0.509803950786591,0.509803950786591,0.588235318660736);
#561=COLOUR_RGB('',0.509803950786591,0.509803950786591,0.588235318660736);
#562=CARTESIAN_POINT('',(13.0507771985023,-5.6843418860808E-014,-5.15402429212889E-014));
#563=DIRECTION('',(-1.0,0.0,0.0));
#564=DIRECTION('',(0.0,0.0,1.0));
#565=CARTESIAN_POINT('',(13.0507771985023,-23.0107771985022,-4.59044141285535E-014));
#566=DIRECTION('',(0.0,-2.44921270764475E-016,-1.0));
#567=DIRECTION('',(-0.0,-1.0,2.44921270764475E-016));
#568=CARTESIAN_POINT('',(20.7111013097461,-5.6843418860808E-014,-5.15402429212889E-014));
#569=DIRECTION('',(1.0,0.0,-0.0));
#570=DIRECTION('',(0.0,1.0,1.09144867148275E-012));
#571=CARTESIAN_POINT('',(13.0507771985023,23.0107771985021,-5.71760717140242E-014));
#572=DIRECTION('',(0.0,-2.44921270764475E-016,-1.0));
#573=DIRECTION('',(0.0,1.0,-2.44921270764475E-016));
#574=CARTESIAN_POINT('',(13.0507771985023,-5.6843418860808E-014,-5.15402429212889E-014));
#575=DIRECTION('',(-1.0,0.0,0.0));
#576=DIRECTION('',(0.0,0.0,1.0));
#577=CARTESIAN_POINT('',(20.7111013097461,-5.6843418860808E-014,-5.15402429212889E-014));
#578=DIRECTION('',(1.0,0.0,-0.0));
#579=DIRECTION('',(0.0,1.0,1.09144867148275E-012));
#580=CARTESIAN_POINT('',(47.0000000000001,-4.20862752796123E-014,-4.7988884495204E-014));
#581=DIRECTION('',(0.0,-2.44921270764476E-016,-1.0));
#582=DIRECTION('',(0.0,-1.0,2.44921270764476E-016));
#583=CARTESIAN_POINT('',(47.0000000000001,-4.20862752796123E-014,-4.7988884495204E-014));
#584=DIRECTION('',(0.0,-2.44921270764476E-016,-1.0));
#585=DIRECTION('',(0.0,-1.0,2.44921270764476E-016));
#586=CARTESIAN_POINT('',(48.8000000000001,-5.6843418860808E-014,-5.15402429212889E-014));
#587=DIRECTION('',(1.0,0.0,-0.0));
#588=DIRECTION('',(0.0,1.0,1.09144867148275E-012));
#589=CARTESIAN_POINT('',(32.0000000000001,-20.0000000000001,-4.66418175059993E-014));
#590=DIRECTION('',(0.0,-2.44921270764475E-016,-1.0));
#591=DIRECTION('',(-0.0,1.0,-2.44921270764475E-016));
#592=CARTESIAN_POINT('',(32.0000000000001,20.0,-5.64386683365784E-014));
#593=DIRECTION('',(0.0,-2.44921270764475E-016,-1.0));
#594=DIRECTION('',(0.0,-1.0,2.44921270764475E-016));
#595=CARTESIAN_POINT('',(13.0507771985023,-23.0107771985022,-4.59044141285535E-014));
#596=DIRECTION('',(0.0,-2.44921270764475E-016,-1.0));
#597=DIRECTION('',(-0.0,-1.0,2.44921270764475E-016));
#598=CARTESIAN_POINT('',(7.00000000000006,-5.6843418860808E-014,-5.15402429212889E-014));
#599=DIRECTION('',(1.0,0.0,-0.0));
#600=DIRECTION('',(0.0,1.0,1.09144867148275E-012));
#601=CARTESIAN_POINT('',(13.0507771985023,23.0107771985021,-5.71760717140242E-014));
#602=DIRECTION('',(0.0,-2.44921270764475E-016,-1.0));
#603=DIRECTION('',(0.0,1.0,-2.44921270764475E-016));
#604=DIRECTION('',(1.0,0.0,0.0));
#605=CARTESIAN_POINT('',(5.6843418860808E-014,-5.6843418860808E-014,-5.15402429212889E-014));
#606=DIRECTION('',(1.0,0.0,-0.0));
#607=DIRECTION('',(0.0,1.0,1.09144867148275E-012));
#608=DIRECTION('',(-1.0,-0.0,-0.0));
#609=CARTESIAN_POINT('',(7.00000000000006,-5.6843418860808E-014,-5.15402429212889E-014));
#610=DIRECTION('',(1.0,0.0,-0.0));
#611=DIRECTION('',(0.0,1.0,1.09144867148275E-012));
#612=DIRECTION('',(1.0,0.0,0.0));
#613=CARTESIAN_POINT('',(-10.4999999999999,-5.6843418860808E-014,-5.15402429212889E-014));
#614=DIRECTION('',(1.0,0.0,-0.0));
#615=DIRECTION('',(0.0,1.0,1.09144867148275E-012));
#616=DIRECTION('',(-1.0,-0.0,-0.0));
#617=CARTESIAN_POINT('',(5.6843418860808E-014,-5.6843418860808E-014,-5.15402429212889E-014));
#618=DIRECTION('',(1.0,0.0,-0.0));
#619=DIRECTION('',(0.0,1.0,1.09144867148275E-012));
#620=DIRECTION('',(0.707106781186547,0.707106781186548,7.71684164176791E-013));
#621=CARTESIAN_POINT('',(-10.9434931606693,-5.6843418860808E-014,-5.15402429212889E-014));
#622=DIRECTION('',(1.0,0.0,-0.0));
#623=DIRECTION('',(0.0,1.0,1.09144867148275E-012));
#624=DIRECTION('',(-0.707106781186547,0.707106781186548,7.71684164176791E-013));
#625=DIRECTION('',(-0.5,0.866025403784438,-3.12644191511724E-016));
#626=DIRECTION('',(0.5,0.866025403784438,-3.12644191511724E-016));
#627=CARTESIAN_POINT('',(-10.9999999999999,0.0,0.0));
#628=DIRECTION('',(-1.0,0.0,0.0));
#629=DIRECTION('',(0.0,-1.0,2.38549780877496E-016));
#630=CARTESIAN_POINT('',(-10.9999999999999,0.0,0.0));
#631=DIRECTION('',(-1.0,0.0,0.0));
#632=DIRECTION('',(0.0,-1.0,2.38549780877496E-016));
#633=CARTESIAN_POINT('',(-10.9434931606693,-5.6843418860808E-014,-5.15402429212889E-014));
#634=DIRECTION('',(1.0,0.0,-0.0));
#635=DIRECTION('',(0.0,1.0,1.09144867148275E-012));
#636=CARTESIAN_POINT('',(-10.4999999999999,-5.6843418860808E-014,-5.15402429212889E-014));
#637=DIRECTION('',(1.0,0.0,-0.0));
#638=DIRECTION('',(0.0,1.0,1.09144867148275E-012));
#639=CARTESIAN_POINT('',(5.6843418860808E-014,-5.6843418860808E-014,-5.15402429212889E-014));
#640=DIRECTION('',(1.0,0.0,-0.0));
#641=DIRECTION('',(0.0,1.0,1.09144867148275E-012));
#642=CARTESIAN_POINT('',(5.6843418860808E-014,-5.6843418860808E-014,-5.15402429212889E-014));
#643=DIRECTION('',(1.0,0.0,-0.0));
#644=DIRECTION('',(0.0,1.0,1.09144867148275E-012));
#645=CARTESIAN_POINT('',(48.8000000000001,-5.6843418860808E-014,-5.15402429212889E-014));
#646=DIRECTION('',(1.0,0.0,-0.0));
#647=DIRECTION('',(0.0,1.0,1.09144867148275E-012));
ENDSEC;
END-ISO-10303-21;
