ISO-10303-21;
HEADER;
FILE_DESCRIPTION(('STEP AP214'),'1');
FILE_NAME(' ','  ',('TraceParts'),('TraceParts S.A.'),'XStep 1.0',' ',' ');
FILE_SCHEMA(('automotive_design'));
ENDSEC;
DATA;
#1=MECHANICAL_DESIGN_GEOMETRIC_PRESENTATION_REPRESENTATION(' ',(#10,#11,#12,#13,#14,#15,#16,#17,#18,#19,#20,#21,#22,#23,#24,#25,#26,#27,#28,#29,#30,#31,#32,#33,#34,#35,#36,#37,#38,#39,#40,#41,#42,#43,#44,#45,#46,#47,#48,#49),#6);
#2=PRODUCT_DEFINITION_CONTEXT('',#50,'design');
#3=APPLICATION_PROTOCOL_DEFINITION('INTERNATIONAL STANDARD','automotive_design',1994,#50);
#4=PRODUCT_CATEGORY_RELATIONSHIP('NONE','NONE',#51,#52);
#5=SHAPE_DEFINITION_REPRESENTATION(#53,#54);
#6= (GEOMETRIC_REPRESENTATION_CONTEXT(3)GLOBAL_UNCERTAINTY_ASSIGNED_CONTEXT((#57))GLOBAL_UNIT_ASSIGNED_CONTEXT((#59,#60,#61))REPRESENTATION_CONTEXT('NONE','WORKSPACE'));
#10=STYLED_ITEM('',(#63),#64);
#11=STYLED_ITEM('',(#65),#66);
#12=STYLED_ITEM('',(#67),#68);
#13=STYLED_ITEM('',(#69),#70);
#14=STYLED_ITEM('',(#71),#72);
#15=STYLED_ITEM('',(#73),#74);
#16=STYLED_ITEM('',(#75),#76);
#17=STYLED_ITEM('',(#77),#78);
#18=STYLED_ITEM('',(#79),#80);
#19=STYLED_ITEM('',(#81),#82);
#20=STYLED_ITEM('',(#83),#84);
#21=STYLED_ITEM('',(#85),#86);
#22=STYLED_ITEM('',(#87),#88);
#23=STYLED_ITEM('',(#89),#90);
#24=STYLED_ITEM('',(#91),#92);
#25=STYLED_ITEM('',(#93),#94);
#26=STYLED_ITEM('',(#95),#96);
#27=STYLED_ITEM('',(#97),#98);
#28=STYLED_ITEM('',(#99),#100);
#29=STYLED_ITEM('',(#101),#102);
#30=STYLED_ITEM('',(#103),#104);
#31=STYLED_ITEM('',(#105),#106);
#32=STYLED_ITEM('',(#107),#108);
#33=STYLED_ITEM('',(#109),#110);
#34=STYLED_ITEM('',(#111),#112);
#35=STYLED_ITEM('',(#113),#114);
#36=STYLED_ITEM('',(#115),#116);
#37=STYLED_ITEM('',(#117),#118);
#38=STYLED_ITEM('',(#119),#120);
#39=STYLED_ITEM('',(#121),#122);
#40=STYLED_ITEM('',(#123),#124);
#41=STYLED_ITEM('',(#125),#126);
#42=STYLED_ITEM('',(#127),#128);
#43=STYLED_ITEM('',(#129),#130);
#44=STYLED_ITEM('',(#131),#132);
#45=STYLED_ITEM('',(#133),#134);
#46=STYLED_ITEM('',(#135),#136);
#47=STYLED_ITEM('',(#137),#138);
#48=STYLED_ITEM('',(#139),#140);
#49=STYLED_ITEM('',(#141),#142);
#50=APPLICATION_CONTEXT(' ');
#51=PRODUCT_CATEGORY('part','NONE');
#52=PRODUCT_RELATED_PRODUCT_CATEGORY('detail',' ',(#143));
#53=PRODUCT_DEFINITION_SHAPE('NONE','NONE',#144);
#54=ADVANCED_BREP_SHAPE_REPRESENTATION('1',(#82,#145),#6);
#57=UNCERTAINTY_MEASURE_WITH_UNIT(LENGTH_MEASURE(1.0E-006),#59,'','');
#59= (CONVERSION_BASED_UNIT('MILLIMETRE',#148)LENGTH_UNIT()NAMED_UNIT(#151));
#60= (NAMED_UNIT(#153)PLANE_ANGLE_UNIT()SI_UNIT($,.RADIAN.));
#61= (NAMED_UNIT(#153)SOLID_ANGLE_UNIT()SI_UNIT($,.STERADIAN.));
#63=PRESENTATION_STYLE_ASSIGNMENT((#159));
#64=VERTEX_POINT('',#160);
#65=PRESENTATION_STYLE_ASSIGNMENT((#161));
#66=EDGE_CURVE('',#114,#116,#162,.T.);
#67=PRESENTATION_STYLE_ASSIGNMENT((#163));
#68=ADVANCED_FACE('',(#164),#165,.F.);
#69=PRESENTATION_STYLE_ASSIGNMENT((#166));
#70=EDGE_CURVE('',#80,#76,#167,.T.);
#71=PRESENTATION_STYLE_ASSIGNMENT((#168));
#72=VERTEX_POINT('',#169);
#73=PRESENTATION_STYLE_ASSIGNMENT((#170));
#74=EDGE_CURVE('',#142,#64,#171,.T.);
#75=PRESENTATION_STYLE_ASSIGNMENT((#172));
#76=VERTEX_POINT('',#173);
#77=PRESENTATION_STYLE_ASSIGNMENT((#174));
#78=ADVANCED_FACE('',(#175),#176,.F.);
#79=PRESENTATION_STYLE_ASSIGNMENT((#177));
#80=VERTEX_POINT('',#178);
#81=PRESENTATION_STYLE_ASSIGNMENT((#179));
#82=MANIFOLD_SOLID_BREP('1',#180);
#83=PRESENTATION_STYLE_ASSIGNMENT((#181));
#84=ADVANCED_FACE('',(#182),#183,.T.);
#85=PRESENTATION_STYLE_ASSIGNMENT((#184));
#86=EDGE_CURVE('',#102,#120,#185,.T.);
#87=PRESENTATION_STYLE_ASSIGNMENT((#186));
#88=EDGE_CURVE('',#72,#126,#187,.T.);
#89=PRESENTATION_STYLE_ASSIGNMENT((#188));
#90=EDGE_CURVE('',#116,#114,#189,.T.);
#91=PRESENTATION_STYLE_ASSIGNMENT((#190));
#92=EDGE_CURVE('',#120,#76,#191,.T.);
#93=PRESENTATION_STYLE_ASSIGNMENT((#192));
#94=EDGE_CURVE('',#80,#102,#193,.T.);
#95=PRESENTATION_STYLE_ASSIGNMENT((#194));
#96=EDGE_CURVE('',#120,#102,#195,.T.);
#97=PRESENTATION_STYLE_ASSIGNMENT((#196));
#98=EDGE_CURVE('',#126,#72,#197,.T.);
#99=PRESENTATION_STYLE_ASSIGNMENT((#198));
#100=EDGE_CURVE('',#72,#80,#199,.T.);
#101=PRESENTATION_STYLE_ASSIGNMENT((#200));
#102=VERTEX_POINT('',#201);
#103=PRESENTATION_STYLE_ASSIGNMENT((#202));
#104=ADVANCED_FACE('',(#203),#204,.T.);
#105=PRESENTATION_STYLE_ASSIGNMENT((#205));
#106=ADVANCED_FACE('',(#206),#207,.T.);
#107=PRESENTATION_STYLE_ASSIGNMENT((#208));
#108=EDGE_CURVE('',#140,#120,#209,.T.);
#109=PRESENTATION_STYLE_ASSIGNMENT((#210));
#110=EDGE_CURVE('',#72,#142,#211,.T.);
#111=PRESENTATION_STYLE_ASSIGNMENT((#212));
#112=ADVANCED_FACE('',(#213),#214,.T.);
#113=PRESENTATION_STYLE_ASSIGNMENT((#215));
#114=VERTEX_POINT('',#216);
#115=PRESENTATION_STYLE_ASSIGNMENT((#217));
#116=VERTEX_POINT('',#218);
#117=PRESENTATION_STYLE_ASSIGNMENT((#219));
#118=EDGE_CURVE('',#64,#142,#220,.T.);
#119=PRESENTATION_STYLE_ASSIGNMENT((#221));
#120=VERTEX_POINT('',#222);
#121=PRESENTATION_STYLE_ASSIGNMENT((#223));
#122=EDGE_CURVE('',#114,#126,#224,.T.);
#123=PRESENTATION_STYLE_ASSIGNMENT((#225));
#124=EDGE_CURVE('',#64,#126,#226,.T.);
#125=PRESENTATION_STYLE_ASSIGNMENT((#227));
#126=VERTEX_POINT('',#228);
#127=PRESENTATION_STYLE_ASSIGNMENT((#229));
#128=ADVANCED_FACE('',(#230),#231,.T.);
#129=PRESENTATION_STYLE_ASSIGNMENT((#232));
#130=EDGE_CURVE('',#76,#80,#233,.T.);
#131=PRESENTATION_STYLE_ASSIGNMENT((#234));
#132=ADVANCED_FACE('',(#235),#236,.T.);
#133=PRESENTATION_STYLE_ASSIGNMENT((#237));
#134=ADVANCED_FACE('',(#238,#239),#240,.T.);
#135=PRESENTATION_STYLE_ASSIGNMENT((#241));
#136=EDGE_CURVE('',#76,#116,#242,.T.);
#137=PRESENTATION_STYLE_ASSIGNMENT((#243));
#138=EDGE_CURVE('',#102,#140,#244,.T.);
#139=PRESENTATION_STYLE_ASSIGNMENT((#245));
#140=VERTEX_POINT('',#246);
#141=PRESENTATION_STYLE_ASSIGNMENT((#247));
#142=VERTEX_POINT('',#248);
#143=PRODUCT('1','1','PART-1-DESC',(#249));
#144=PRODUCT_DEFINITION('NONE','NONE',#250,#2);
#145=AXIS2_PLACEMENT_3D('',#251,#252,#253);
#148=LENGTH_MEASURE_WITH_UNIT(LENGTH_MEASURE(1.0),#254);
#151=DIMENSIONAL_EXPONENTS(1.0,0.0,0.0,0.0,0.0,0.0,0.0);
#153=DIMENSIONAL_EXPONENTS(0.0,0.0,0.0,0.0,0.0,0.0,0.0);
#159=POINT_STYLE(' ',#255,POSITIVE_LENGTH_MEASURE(1.0E-006),#256);
#160=CARTESIAN_POINT('',(-5.99999999999995,2.47352723792082E-015,-2.8421709430404E-014));
#161=CURVE_STYLE('',#257,POSITIVE_LENGTH_MEASURE(1.0E-006),#258);
#162=CIRCLE('',#259,9.99999999999999);
#163=SURFACE_STYLE_USAGE(.BOTH.,#260);
#164=FACE_OUTER_BOUND('',#261,.T.);
#165=CYLINDRICAL_SURFACE('',#262,6.0);
#166=CURVE_STYLE('',#263,POSITIVE_LENGTH_MEASURE(1.0E-006),#264);
#167=CIRCLE('',#265,5.50000000000003);
#168=POINT_STYLE(' ',#266,POSITIVE_LENGTH_MEASURE(1.0E-006),#267);
#169=CARTESIAN_POINT('',(6.00000000000006,4.00125953045133E-015,18.4658560997306));
#170=CURVE_STYLE('',#268,POSITIVE_LENGTH_MEASURE(1.0E-006),#269);
#171=CIRCLE('',#270,6.00000000000001);
#172=POINT_STYLE(' ',#271,POSITIVE_LENGTH_MEASURE(1.0E-006),#272);
#173=CARTESIAN_POINT('',(12.4291342958729,2.20307958609811E-012,6.17085717277734));
#174=SURFACE_STYLE_USAGE(.BOTH.,#273);
#175=FACE_OUTER_BOUND('',#274,.T.);
#176=CYLINDRICAL_SURFACE('',#275,6.0);
#177=POINT_STYLE(' ',#276,POSITIVE_LENGTH_MEASURE(1.0E-006),#277);
#178=CARTESIAN_POINT('',(8.66691271929058,6.84108347286357E-014,16.5074760014223));
#179=SURFACE_STYLE_USAGE(.BOTH.,#278);
#180=CLOSED_SHELL('',(#112,#68,#104,#128,#106,#132,#134,#78,#84));
#181=SURFACE_STYLE_USAGE(.BOTH.,#279);
#182=FACE_OUTER_BOUND('',#280,.T.);
#183=SPHERICAL_SURFACE('',#281,12.5);
#184=CURVE_STYLE('',#282,POSITIVE_LENGTH_MEASURE(1.0E-006),#283);
#185=CIRCLE('',#284,7.99615933044265);
#186=CURVE_STYLE('',#285,POSITIVE_LENGTH_MEASURE(1.0E-006),#286);
#187=CIRCLE('',#287,6.0);
#188=CURVE_STYLE('',#288,POSITIVE_LENGTH_MEASURE(1.0E-006),#289);
#189=CIRCLE('',#290,9.99999999999999);
#190=CURVE_STYLE('',#291,POSITIVE_LENGTH_MEASURE(1.0E-006),#292);
#191=LINE('',#293,#294);
#192=CURVE_STYLE('',#295,POSITIVE_LENGTH_MEASURE(1.0E-006),#296);
#193=LINE('',#297,#298);
#194=CURVE_STYLE('',#299,POSITIVE_LENGTH_MEASURE(1.0E-006),#300);
#195=CIRCLE('',#301,7.99615933044265);
#196=CURVE_STYLE('',#302,POSITIVE_LENGTH_MEASURE(1.0E-006),#303);
#197=CIRCLE('',#304,6.0);
#198=CURVE_STYLE('',#305,POSITIVE_LENGTH_MEASURE(1.0E-006),#306);
#199=CIRCLE('',#307,12.5);
#200=POINT_STYLE(' ',#308,POSITIVE_LENGTH_MEASURE(1.0E-006),#309);
#201=CARTESIAN_POINT('',(83.4839587182524,7.38218032570539E-014,46.395011036785));
#202=SURFACE_STYLE_USAGE(.BOTH.,#310);
#203=FACE_OUTER_BOUND('',#311,.T.);
#204=SPHERICAL_SURFACE('',#312,8.00000000000001);
#205=SURFACE_STYLE_USAGE(.BOTH.,#313);
#206=FACE_OUTER_BOUND('',#314,.T.);
#207=CONICAL_SURFACE('',#315,6.74807966522132,0.0309878076985048);
#208=CURVE_STYLE('',#316,POSITIVE_LENGTH_MEASURE(1.0E-006),#317);
#209=CIRCLE('',#318,8.00000000000001);
#210=CURVE_STYLE('',#319,POSITIVE_LENGTH_MEASURE(1.0E-006),#320);
#211=LINE('',#321,#322);
#212=SURFACE_STYLE_USAGE(.BOTH.,#323);
#213=FACE_OUTER_BOUND('',#324,.T.);
#214=SPHERICAL_SURFACE('',#325,12.5);
#215=POINT_STYLE(' ',#326,POSITIVE_LENGTH_MEASURE(1.0E-006),#327);
#216=CARTESIAN_POINT('',(-9.99999999999994,1.45840157771549E-016,-3.5527136788005E-014));
#217=POINT_STYLE(' ',#328,POSITIVE_LENGTH_MEASURE(1.0E-006),#329);
#218=CARTESIAN_POINT('',(10.0000000000001,3.36043183655529E-015,-3.5527136788005E-014));
#219=CURVE_STYLE('',#330,POSITIVE_LENGTH_MEASURE(1.0E-006),#331);
#220=CIRCLE('',#332,6.00000000000001);
#221=POINT_STYLE(' ',#333,POSITIVE_LENGTH_MEASURE(1.0E-006),#334);
#222=CARTESIAN_POINT('',(88.9536538387581,3.18192265658572E-012,31.3671472018943));
#223=CURVE_STYLE('',#335,POSITIVE_LENGTH_MEASURE(1.0E-006),#336);
#224=CIRCLE('',#337,12.5);
#225=CURVE_STYLE('',#338,POSITIVE_LENGTH_MEASURE(1.0E-006),#339);
#226=LINE('',#340,#341);
#227=POINT_STYLE(' ',#342,POSITIVE_LENGTH_MEASURE(1.0E-006),#343);
#228=CARTESIAN_POINT('',(-5.99999999999994,2.47352723792082E-015,18.4658560997306));
#229=SURFACE_STYLE_USAGE(.BOTH.,#344);
#230=FACE_OUTER_BOUND('',#345,.T.);
#231=CONICAL_SURFACE('',#346,6.74807966522132,0.0309878076985048);
#232=CURVE_STYLE('',#347,POSITIVE_LENGTH_MEASURE(1.0E-006),#348);
#233=CIRCLE('',#349,5.50000000000003);
#234=SURFACE_STYLE_USAGE(.BOTH.,#350);
#235=FACE_OUTER_BOUND('',#351,.T.);
#236=SPHERICAL_SURFACE('',#352,8.00000000000001);
#237=SURFACE_STYLE_USAGE(.BOTH.,#353);
#238=FACE_BOUND('',#354,.T.);
#239=FACE_OUTER_BOUND('',#355,.T.);
#240=PLANE('',#356);
#241=CURVE_STYLE('',#357,POSITIVE_LENGTH_MEASURE(1.0E-006),#358);
#242=CIRCLE('',#359,12.5);
#243=CURVE_STYLE('',#360,POSITIVE_LENGTH_MEASURE(1.0E-006),#361);
#244=CIRCLE('',#362,8.00000000000001);
#245=POINT_STYLE(' ',#363,POSITIVE_LENGTH_MEASURE(1.0E-006),#364);
#246=CARTESIAN_POINT('',(93.969262078591,7.28906983689576E-014,41.7020143325667));
#247=POINT_STYLE(' ',#365,POSITIVE_LENGTH_MEASURE(1.0E-006),#366);
#248=CARTESIAN_POINT('',(6.00000000000006,2.87058929502634E-015,-2.8421709430404E-014));
#249=PRODUCT_CONTEXT('',#50,'mechanical');
#250=PRODUCT_DEFINITION_FORMATION_WITH_SPECIFIED_SOURCE(' ','NONE',#143,.NOT_KNOWN.);
#251=CARTESIAN_POINT('',(0.0,0.0,0.0));
#252=DIRECTION('',(0.0,0.0,1.0));
#253=DIRECTION('',(1.0,0.0,0.0));
#254= (NAMED_UNIT(#151)LENGTH_UNIT()SI_UNIT(.MILLI.,.METRE.));
#255=PRE_DEFINED_MARKER('');
#256=COLOUR_RGB('',0.509803950786591,0.509803950786591,0.588235318660736);
#257=DRAUGHTING_PRE_DEFINED_CURVE_FONT('continuous');
#258=COLOUR_RGB('',0.509803950786591,0.509803950786591,0.588235318660736);
#259=AXIS2_PLACEMENT_3D('',#368,#369,#370);
#260=SURFACE_SIDE_STYLE('',(#371));
#261=EDGE_LOOP('',(#372,#373,#374,#375));
#262=AXIS2_PLACEMENT_3D('',#376,#377,#378);
#263=DRAUGHTING_PRE_DEFINED_CURVE_FONT('continuous');
#264=COLOUR_RGB('',0.509803950786591,0.509803950786591,0.588235318660736);
#265=AXIS2_PLACEMENT_3D('',#379,#380,#381);
#266=PRE_DEFINED_MARKER('');
#267=COLOUR_RGB('',0.509803950786591,0.509803950786591,0.588235318660736);
#268=DRAUGHTING_PRE_DEFINED_CURVE_FONT('continuous');
#269=COLOUR_RGB('',0.509803950786591,0.509803950786591,0.588235318660736);
#270=AXIS2_PLACEMENT_3D('',#382,#383,#384);
#271=PRE_DEFINED_MARKER('');
#272=COLOUR_RGB('',0.509803950786591,0.509803950786591,0.588235318660736);
#273=SURFACE_SIDE_STYLE('',(#385));
#274=EDGE_LOOP('',(#386,#387,#388,#389));
#275=AXIS2_PLACEMENT_3D('',#390,#391,#392);
#276=PRE_DEFINED_MARKER('');
#277=COLOUR_RGB('',0.509803950786591,0.509803950786591,0.588235318660736);
#278=SURFACE_SIDE_STYLE('',(#393));
#279=SURFACE_SIDE_STYLE('',(#394));
#280=EDGE_LOOP('',(#395,#396,#397,#398,#399,#400));
#281=AXIS2_PLACEMENT_3D('',#401,#402,#403);
#282=DRAUGHTING_PRE_DEFINED_CURVE_FONT('continuous');
#283=COLOUR_RGB('',0.509803950786591,0.509803950786591,0.588235318660736);
#284=AXIS2_PLACEMENT_3D('',#404,#405,#406);
#285=DRAUGHTING_PRE_DEFINED_CURVE_FONT('continuous');
#286=COLOUR_RGB('',0.509803950786591,0.509803950786591,0.588235318660736);
#287=AXIS2_PLACEMENT_3D('',#407,#408,#409);
#288=DRAUGHTING_PRE_DEFINED_CURVE_FONT('continuous');
#289=COLOUR_RGB('',0.509803950786591,0.509803950786591,0.588235318660736);
#290=AXIS2_PLACEMENT_3D('',#410,#411,#412);
#291=DRAUGHTING_PRE_DEFINED_CURVE_FONT('continuous');
#292=COLOUR_RGB('',0.509803950786591,0.509803950786591,0.588235318660736);
#293=CARTESIAN_POINT('',(50.6913940673155,2.69250112134192E-012,18.7690021873358));
#294=VECTOR('',#413,1.0);
#295=DRAUGHTING_PRE_DEFINED_CURVE_FONT('continuous');
#296=COLOUR_RGB('',0.509803950786591,0.509803950786591,0.588235318660736);
#297=CARTESIAN_POINT('',(46.0754357187715,-2.54639244814712E-012,31.4512435191036));
#298=VECTOR('',#414,1.0);
#299=DRAUGHTING_PRE_DEFINED_CURVE_FONT('continuous');
#300=COLOUR_RGB('',0.509803950786591,0.509803950786591,0.588235318660736);
#301=AXIS2_PLACEMENT_3D('',#415,#416,#417);
#302=DRAUGHTING_PRE_DEFINED_CURVE_FONT('continuous');
#303=COLOUR_RGB('',0.509803950786591,0.509803950786591,0.588235318660736);
#304=AXIS2_PLACEMENT_3D('',#418,#419,#420);
#305=DRAUGHTING_PRE_DEFINED_CURVE_FONT('continuous');
#306=COLOUR_RGB('',0.509803950786591,0.509803950786591,0.588235318660736);
#307=AXIS2_PLACEMENT_3D('',#421,#422,#423);
#308=PRE_DEFINED_MARKER('');
#309=COLOUR_RGB('',0.509803950786591,0.509803950786591,0.588235318660736);
#310=SURFACE_SIDE_STYLE('',(#424));
#311=EDGE_LOOP('',(#425,#426,#427));
#312=AXIS2_PLACEMENT_3D('',#428,#429,#430);
#313=SURFACE_SIDE_STYLE('',(#431));
#314=EDGE_LOOP('',(#432,#433,#434,#435));
#315=AXIS2_PLACEMENT_3D('',#436,#437,#438);
#316=DRAUGHTING_PRE_DEFINED_CURVE_FONT('continuous');
#317=COLOUR_RGB('',0.509803950786591,0.509803950786591,0.588235318660736);
#318=AXIS2_PLACEMENT_3D('',#439,#440,#441);
#319=DRAUGHTING_PRE_DEFINED_CURVE_FONT('continuous');
#320=COLOUR_RGB('',0.509803950786591,0.509803950786591,0.588235318660736);
#321=CARTESIAN_POINT('',(6.00000000000006,4.05946419839499E-015,9.2329280498653));
#322=VECTOR('',#442,1.0);
#323=SURFACE_SIDE_STYLE('',(#443));
#324=EDGE_LOOP('',(#444,#445,#446,#447,#448,#449));
#325=AXIS2_PLACEMENT_3D('',#450,#451,#452);
#326=PRE_DEFINED_MARKER('');
#327=COLOUR_RGB('',0.509803950786591,0.509803950786591,0.588235318660736);
#328=PRE_DEFINED_MARKER('');
#329=COLOUR_RGB('',0.509803950786591,0.509803950786591,0.588235318660736);
#330=DRAUGHTING_PRE_DEFINED_CURVE_FONT('continuous');
#331=COLOUR_RGB('',0.509803950786591,0.509803950786591,0.588235318660736);
#332=AXIS2_PLACEMENT_3D('',#453,#454,#455);
#333=PRE_DEFINED_MARKER('');
#334=COLOUR_RGB('',0.509803950786591,0.509803950786591,0.588235318660736);
#335=DRAUGHTING_PRE_DEFINED_CURVE_FONT('continuous');
#336=COLOUR_RGB('',0.509803950786591,0.509803950786591,0.588235318660736);
#337=AXIS2_PLACEMENT_3D('',#456,#457,#458);
#338=DRAUGHTING_PRE_DEFINED_CURVE_FONT('continuous');
#339=COLOUR_RGB('',0.509803950786591,0.509803950786591,0.588235318660736);
#340=CARTESIAN_POINT('',(-5.99999999999995,2.47352723792082E-015,9.2329280498653));
#341=VECTOR('',#459,1.0);
#342=PRE_DEFINED_MARKER('');
#343=COLOUR_RGB('',0.509803950786591,0.509803950786591,0.588235318660736);
#344=SURFACE_SIDE_STYLE('',(#460));
#345=EDGE_LOOP('',(#461,#462,#463,#464));
#346=AXIS2_PLACEMENT_3D('',#465,#466,#467);
#347=DRAUGHTING_PRE_DEFINED_CURVE_FONT('continuous');
#348=COLOUR_RGB('',0.509803950786591,0.509803950786591,0.588235318660736);
#349=AXIS2_PLACEMENT_3D('',#468,#469,#470);
#350=SURFACE_SIDE_STYLE('',(#471));
#351=EDGE_LOOP('',(#472,#473,#474));
#352=AXIS2_PLACEMENT_3D('',#475,#476,#477);
#353=SURFACE_SIDE_STYLE('',(#478));
#354=EDGE_LOOP('',(#479,#480));
#355=EDGE_LOOP('',(#481,#482));
#356=AXIS2_PLACEMENT_3D('',#483,#484,#485);
#357=DRAUGHTING_PRE_DEFINED_CURVE_FONT('continuous');
#358=COLOUR_RGB('',0.509803950786591,0.509803950786591,0.588235318660736);
#359=AXIS2_PLACEMENT_3D('',#486,#487,#488);
#360=DRAUGHTING_PRE_DEFINED_CURVE_FONT('continuous');
#361=COLOUR_RGB('',0.509803950786591,0.509803950786591,0.588235318660736);
#362=AXIS2_PLACEMENT_3D('',#489,#490,#491);
#363=PRE_DEFINED_MARKER('');
#364=COLOUR_RGB('',0.509803950786591,0.509803950786591,0.588235318660736);
#365=PRE_DEFINED_MARKER('');
#366=COLOUR_RGB('',0.509803950786591,0.509803950786591,0.588235318660736);
#368=CARTESIAN_POINT('',(5.6843418860808E-014,3.2664957181579E-015,-3.5527136788005E-014));
#369=DIRECTION('',(0.0,0.0,-1.0));
#370=DIRECTION('',(1.0,9.70077799060964E-018,0.0));
#371=SURFACE_STYLE_FILL_AREA(#492);
#372=ORIENTED_EDGE('',*,*,#110,.F.);
#373=ORIENTED_EDGE('',*,*,#98,.F.);
#374=ORIENTED_EDGE('',*,*,#124,.F.);
#375=ORIENTED_EDGE('',*,*,#118,.T.);
#376=CARTESIAN_POINT('',(5.6843418860808E-014,3.2664957181579E-015,9.2329280498653));
#377=DIRECTION('',(-0.0,-0.0,1.0));
#378=DIRECTION('',(1.0,9.70077799060962E-018,0.0));
#379=CARTESIAN_POINT('',(10.5480235075817,3.97398573688496E-015,11.3391665870999));
#380=DIRECTION('',(-0.939692620785909,-1.22845103914193E-016,-0.342020143325668));
#381=DIRECTION('',(0.342020143325668,0.0,-0.939692620785909));
#382=CARTESIAN_POINT('',(5.6843418860808E-014,3.2664957181579E-015,-2.8421709430404E-014));
#383=DIRECTION('',(0.0,0.0,-1.0));
#384=DIRECTION('',(1.0,9.70077799060963E-018,0.0));
#385=SURFACE_STYLE_FILL_AREA(#493);
#386=ORIENTED_EDGE('',*,*,#110,.T.);
#387=ORIENTED_EDGE('',*,*,#74,.T.);
#388=ORIENTED_EDGE('',*,*,#124,.T.);
#389=ORIENTED_EDGE('',*,*,#88,.F.);
#390=CARTESIAN_POINT('',(5.6843418860808E-014,3.2664957181579E-015,9.2329280498653));
#391=DIRECTION('',(-0.0,-0.0,1.0));
#392=DIRECTION('',(1.0,9.70077799060962E-018,0.0));
#393=SURFACE_STYLE_FILL_AREA(#494);
#394=SURFACE_STYLE_FILL_AREA(#495);
#395=ORIENTED_EDGE('',*,*,#100,.T.);
#396=ORIENTED_EDGE('',*,*,#70,.T.);
#397=ORIENTED_EDGE('',*,*,#136,.T.);
#398=ORIENTED_EDGE('',*,*,#66,.F.);
#399=ORIENTED_EDGE('',*,*,#122,.T.);
#400=ORIENTED_EDGE('',*,*,#98,.T.);
#401=CARTESIAN_POINT('',(6.21724893790088E-014,2.5950528654163E-015,7.49999999999997));
#402=DIRECTION('',(0.0,0.0,-1.0));
#403=DIRECTION('',(1.0,1.22460635382238E-016,0.0));
#404=CARTESIAN_POINT('',(86.2188062785052,7.80005205766838E-014,38.8810791193397));
#405=DIRECTION('',(0.939692620785909,1.22845103914188E-016,0.342020143325668));
#406=DIRECTION('',(-0.342020143325668,-3.88299084904475E-013,0.939692620785909));
#407=CARTESIAN_POINT('',(5.6843418860808E-014,3.2664957181579E-015,18.4658560997306));
#408=DIRECTION('',(0.0,0.0,-1.0));
#409=DIRECTION('',(1.0,9.70077799060962E-018,0.0));
#410=CARTESIAN_POINT('',(5.6843418860808E-014,3.2664957181579E-015,-3.5527136788005E-014));
#411=DIRECTION('',(0.0,0.0,-1.0));
#412=DIRECTION('',(1.0,9.70077799060964E-018,0.0));
#413=DIRECTION('',(-0.949838248008383,-1.21496037178783E-014,-0.312741590806795));
#414=DIRECTION('',(0.928644731352954,-1.19040314619126E-014,0.370970299256423));
#415=CARTESIAN_POINT('',(86.2188062785052,7.80005205766838E-014,38.8810791193397));
#416=DIRECTION('',(0.939692620785909,1.22845103914188E-016,0.342020143325668));
#417=DIRECTION('',(-0.342020143325668,-3.88299084904475E-013,0.939692620785909));
#418=CARTESIAN_POINT('',(5.6843418860808E-014,3.2664957181579E-015,18.4658560997306));
#419=DIRECTION('',(0.0,0.0,-1.0));
#420=DIRECTION('',(1.0,9.70077799060962E-018,0.0));
#421=CARTESIAN_POINT('',(6.21724893790088E-014,2.5950528654163E-015,7.49999999999997));
#422=DIRECTION('',(-2.44921270764475E-016,1.0,0.0));
#423=DIRECTION('',(0.0,0.0,-1.0));
#424=SURFACE_STYLE_FILL_AREA(#496);
#425=ORIENTED_EDGE('',*,*,#138,.T.);
#426=ORIENTED_EDGE('',*,*,#108,.T.);
#427=ORIENTED_EDGE('',*,*,#96,.T.);
#428=CARTESIAN_POINT('',(86.4517211123037,7.2397780079173E-014,38.9658531859614));
#429=DIRECTION('',(0.939692620785909,1.22845103914193E-016,0.342020143325668));
#430=DIRECTION('',(-0.342020143325668,1.79998313084964E-016,0.939692620785909));
#431=SURFACE_STYLE_FILL_AREA(#497);
#432=ORIENTED_EDGE('',*,*,#94,.T.);
#433=ORIENTED_EDGE('',*,*,#96,.F.);
#434=ORIENTED_EDGE('',*,*,#92,.T.);
#435=ORIENTED_EDGE('',*,*,#70,.F.);
#436=CARTESIAN_POINT('',(48.3834148930435,7.30543365974014E-014,25.1101228532197));
#437=DIRECTION('',(0.939692620785909,1.22845103914202E-016,0.342020143325668));
#438=DIRECTION('',(-0.342020143325668,-3.88299084904475E-013,0.939692620785909));
#439=CARTESIAN_POINT('',(86.4517211123037,7.2397780079173E-014,38.9658531859614));
#440=DIRECTION('',(-1.19895847429617E-017,1.0,-3.26233942012884E-016));
#441=DIRECTION('',(0.0,-3.26233942012884E-016,-1.0));
#442=DIRECTION('',(-0.0,-0.0,-1.0));
#443=SURFACE_STYLE_FILL_AREA(#498);
#444=ORIENTED_EDGE('',*,*,#100,.F.);
#445=ORIENTED_EDGE('',*,*,#88,.T.);
#446=ORIENTED_EDGE('',*,*,#122,.F.);
#447=ORIENTED_EDGE('',*,*,#90,.F.);
#448=ORIENTED_EDGE('',*,*,#136,.F.);
#449=ORIENTED_EDGE('',*,*,#130,.T.);
#450=CARTESIAN_POINT('',(6.21724893790088E-014,2.5950528654163E-015,7.49999999999997));
#451=DIRECTION('',(0.0,0.0,-1.0));
#452=DIRECTION('',(1.0,1.22460635382238E-016,0.0));
#453=CARTESIAN_POINT('',(5.6843418860808E-014,3.2664957181579E-015,-2.8421709430404E-014));
#454=DIRECTION('',(0.0,0.0,-1.0));
#455=DIRECTION('',(1.0,9.70077799060963E-018,0.0));
#456=CARTESIAN_POINT('',(6.21724893790088E-014,2.5950528654163E-015,7.49999999999997));
#457=DIRECTION('',(-2.44921270764475E-016,1.0,0.0));
#458=DIRECTION('',(0.0,0.0,-1.0));
#459=DIRECTION('',(-0.0,-0.0,1.0));
#460=SURFACE_STYLE_FILL_AREA(#499);
#461=ORIENTED_EDGE('',*,*,#94,.F.);
#462=ORIENTED_EDGE('',*,*,#130,.F.);
#463=ORIENTED_EDGE('',*,*,#92,.F.);
#464=ORIENTED_EDGE('',*,*,#86,.F.);
#465=CARTESIAN_POINT('',(48.3834148930435,7.30543365974014E-014,25.1101228532197));
#466=DIRECTION('',(0.939692620785909,1.22845103914202E-016,0.342020143325668));
#467=DIRECTION('',(-0.342020143325668,-3.88299084904475E-013,0.939692620785909));
#468=CARTESIAN_POINT('',(10.5480235075817,3.97398573688496E-015,11.3391665870999));
#469=DIRECTION('',(-0.939692620785909,-1.22845103914193E-016,-0.342020143325668));
#470=DIRECTION('',(0.342020143325668,0.0,-0.939692620785909));
#471=SURFACE_STYLE_FILL_AREA(#500);
#472=ORIENTED_EDGE('',*,*,#138,.F.);
#473=ORIENTED_EDGE('',*,*,#86,.T.);
#474=ORIENTED_EDGE('',*,*,#108,.F.);
#475=CARTESIAN_POINT('',(86.4517211123037,7.2397780079173E-014,38.9658531859614));
#476=DIRECTION('',(0.939692620785909,1.22845103914193E-016,0.342020143325668));
#477=DIRECTION('',(-0.342020143325668,1.79998313084964E-016,0.939692620785909));
#478=SURFACE_STYLE_FILL_AREA(#501);
#479=ORIENTED_EDGE('',*,*,#74,.F.);
#480=ORIENTED_EDGE('',*,*,#118,.F.);
#481=ORIENTED_EDGE('',*,*,#90,.T.);
#482=ORIENTED_EDGE('',*,*,#66,.T.);
#483=CARTESIAN_POINT('',(8.00000000000006,3.11551056579081E-015,-3.19744231092045E-014));
#484=DIRECTION('',(0.0,0.0,-1.0));
#485=DIRECTION('',(1.0,1.22460635382238E-016,0.0));
#486=CARTESIAN_POINT('',(6.21724893790088E-014,2.5950528654163E-015,7.49999999999997));
#487=DIRECTION('',(-2.44921270764475E-016,1.0,0.0));
#488=DIRECTION('',(0.0,0.0,-1.0));
#489=CARTESIAN_POINT('',(86.4517211123037,7.2397780079173E-014,38.9658531859614));
#490=DIRECTION('',(-1.19895847429617E-017,1.0,-3.26233942012884E-016));
#491=DIRECTION('',(0.0,-3.26233942012884E-016,-1.0));
#492=FILL_AREA_STYLE('',(#502));
#493=FILL_AREA_STYLE('',(#503));
#494=FILL_AREA_STYLE('',(#504));
#495=FILL_AREA_STYLE('',(#505));
#496=FILL_AREA_STYLE('',(#506));
#497=FILL_AREA_STYLE('',(#507));
#498=FILL_AREA_STYLE('',(#508));
#499=FILL_AREA_STYLE('',(#509));
#500=FILL_AREA_STYLE('',(#510));
#501=FILL_AREA_STYLE('',(#511));
#502=FILL_AREA_STYLE_COLOUR('',#512);
#503=FILL_AREA_STYLE_COLOUR('',#513);
#504=FILL_AREA_STYLE_COLOUR('',#514);
#505=FILL_AREA_STYLE_COLOUR('',#515);
#506=FILL_AREA_STYLE_COLOUR('',#516);
#507=FILL_AREA_STYLE_COLOUR('',#517);
#508=FILL_AREA_STYLE_COLOUR('',#518);
#509=FILL_AREA_STYLE_COLOUR('',#519);
#510=FILL_AREA_STYLE_COLOUR('',#520);
#511=FILL_AREA_STYLE_COLOUR('',#521);
#512=COLOUR_RGB('',0.509803950786591,0.509803950786591,0.588235318660736);
#513=COLOUR_RGB('',0.509803950786591,0.509803950786591,0.588235318660736);
#514=COLOUR_RGB('',0.509803950786591,0.509803950786591,0.588235318660736);
#515=COLOUR_RGB('',0.509803950786591,0.509803950786591,0.588235318660736);
#516=COLOUR_RGB('',0.509803950786591,0.509803950786591,0.588235318660736);
#517=COLOUR_RGB('',0.509803950786591,0.509803950786591,0.588235318660736);
#518=COLOUR_RGB('',0.509803950786591,0.509803950786591,0.588235318660736);
#519=COLOUR_RGB('',0.509803950786591,0.509803950786591,0.588235318660736);
#520=COLOUR_RGB('',0.509803950786591,0.509803950786591,0.588235318660736);
#521=COLOUR_RGB('',0.509803950786591,0.509803950786591,0.588235318660736);
ENDSEC;
END-ISO-10303-21;
