ISO-10303-21;
HEADER;
FILE_DESCRIPTION(('STEP AP214'),'1');
FILE_NAME(' ','  ',('TraceParts'),('TraceParts S.A.'),'XStep 1.0',' ',' ');
FILE_SCHEMA(('automotive_design'));
ENDSEC;
DATA;
#1=MECHANICAL_DESIGN_GEOMETRIC_PRESENTATION_REPRESENTATION(' ',(#10,#11,#12,#13,#14,#15,#16,#17,#18,#19,#20,#21,#22,#23,#24,#25,#26,#27,#28,#29,#30,#31,#32,#33,#34,#35,#36,#37,#38,#39,#40,#41,#42,#43,#44,#45,#46,#47,#48,#49),#6);
#2=PRODUCT_DEFINITION_CONTEXT('',#50,'design');
#3=APPLICATION_PROTOCOL_DEFINITION('INTERNATIONAL STANDARD','automotive_design',1994,#50);
#4=PRODUCT_CATEGORY_RELATIONSHIP('NONE','NONE',#51,#52);
#5=SHAPE_DEFINITION_REPRESENTATION(#53,#54);
#6= (GEOMETRIC_REPRESENTATION_CONTEXT(3)GLOBAL_UNCERTAINTY_ASSIGNED_CONTEXT((#57))GLOBAL_UNIT_ASSIGNED_CONTEXT((#59,#60,#61))REPRESENTATION_CONTEXT('NONE','WORKSPACE'));
#10=STYLED_ITEM('',(#63),#64);
#11=STYLED_ITEM('',(#65),#66);
#12=STYLED_ITEM('',(#67),#68);
#13=STYLED_ITEM('',(#69),#70);
#14=STYLED_ITEM('',(#71),#72);
#15=STYLED_ITEM('',(#73),#74);
#16=STYLED_ITEM('',(#75),#76);
#17=STYLED_ITEM('',(#77),#78);
#18=STYLED_ITEM('',(#79),#80);
#19=STYLED_ITEM('',(#81),#82);
#20=STYLED_ITEM('',(#83),#84);
#21=STYLED_ITEM('',(#85),#86);
#22=STYLED_ITEM('',(#87),#88);
#23=STYLED_ITEM('',(#89),#90);
#24=STYLED_ITEM('',(#91),#92);
#25=STYLED_ITEM('',(#93),#94);
#26=STYLED_ITEM('',(#95),#96);
#27=STYLED_ITEM('',(#97),#98);
#28=STYLED_ITEM('',(#99),#100);
#29=STYLED_ITEM('',(#101),#102);
#30=STYLED_ITEM('',(#103),#104);
#31=STYLED_ITEM('',(#105),#106);
#32=STYLED_ITEM('',(#107),#108);
#33=STYLED_ITEM('',(#109),#110);
#34=STYLED_ITEM('',(#111),#112);
#35=STYLED_ITEM('',(#113),#114);
#36=STYLED_ITEM('',(#115),#116);
#37=STYLED_ITEM('',(#117),#118);
#38=STYLED_ITEM('',(#119),#120);
#39=STYLED_ITEM('',(#121),#122);
#40=STYLED_ITEM('',(#123),#124);
#41=STYLED_ITEM('',(#125),#126);
#42=STYLED_ITEM('',(#127),#128);
#43=STYLED_ITEM('',(#129),#130);
#44=STYLED_ITEM('',(#131),#132);
#45=STYLED_ITEM('',(#133),#134);
#46=STYLED_ITEM('',(#135),#136);
#47=STYLED_ITEM('',(#137),#138);
#48=STYLED_ITEM('',(#139),#140);
#49=STYLED_ITEM('',(#141),#142);
#50=APPLICATION_CONTEXT(' ');
#51=PRODUCT_CATEGORY('part','NONE');
#52=PRODUCT_RELATED_PRODUCT_CATEGORY('detail',' ',(#143));
#53=PRODUCT_DEFINITION_SHAPE('NONE','NONE',#144);
#54=ADVANCED_BREP_SHAPE_REPRESENTATION('1',(#106,#145),#6);
#57=UNCERTAINTY_MEASURE_WITH_UNIT(LENGTH_MEASURE(1.0E-006),#59,'','');
#59= (CONVERSION_BASED_UNIT('MILLIMETRE',#148)LENGTH_UNIT()NAMED_UNIT(#151));
#60= (NAMED_UNIT(#153)PLANE_ANGLE_UNIT()SI_UNIT($,.RADIAN.));
#61= (NAMED_UNIT(#153)SOLID_ANGLE_UNIT()SI_UNIT($,.STERADIAN.));
#63=PRESENTATION_STYLE_ASSIGNMENT((#159));
#64=VERTEX_POINT('',#160);
#65=PRESENTATION_STYLE_ASSIGNMENT((#161));
#66=VERTEX_POINT('',#162);
#67=PRESENTATION_STYLE_ASSIGNMENT((#163));
#68=EDGE_CURVE('',#78,#108,#164,.T.);
#69=PRESENTATION_STYLE_ASSIGNMENT((#165));
#70=ADVANCED_FACE('',(#166),#167,.T.);
#71=PRESENTATION_STYLE_ASSIGNMENT((#168));
#72=EDGE_CURVE('',#140,#100,#169,.T.);
#73=PRESENTATION_STYLE_ASSIGNMENT((#170));
#74=ADVANCED_FACE('',(#171),#172,.T.);
#75=PRESENTATION_STYLE_ASSIGNMENT((#173));
#76=ADVANCED_FACE('',(#174),#175,.F.);
#77=PRESENTATION_STYLE_ASSIGNMENT((#176));
#78=VERTEX_POINT('',#177);
#79=PRESENTATION_STYLE_ASSIGNMENT((#178));
#80=VERTEX_POINT('',#179);
#81=PRESENTATION_STYLE_ASSIGNMENT((#180));
#82=VERTEX_POINT('',#181);
#83=PRESENTATION_STYLE_ASSIGNMENT((#182));
#84=EDGE_CURVE('',#140,#108,#183,.T.);
#85=PRESENTATION_STYLE_ASSIGNMENT((#184));
#86=EDGE_CURVE('',#78,#116,#185,.T.);
#87=PRESENTATION_STYLE_ASSIGNMENT((#186));
#88=EDGE_CURVE('',#64,#80,#187,.T.);
#89=PRESENTATION_STYLE_ASSIGNMENT((#188));
#90=ADVANCED_FACE('',(#189,#190),#191,.T.);
#91=PRESENTATION_STYLE_ASSIGNMENT((#192));
#92=EDGE_CURVE('',#116,#78,#193,.T.);
#93=PRESENTATION_STYLE_ASSIGNMENT((#194));
#94=EDGE_CURVE('',#82,#130,#195,.T.);
#95=PRESENTATION_STYLE_ASSIGNMENT((#196));
#96=ADVANCED_FACE('',(#197),#198,.T.);
#97=PRESENTATION_STYLE_ASSIGNMENT((#199));
#98=ADVANCED_FACE('',(#200),#201,.T.);
#99=PRESENTATION_STYLE_ASSIGNMENT((#202));
#100=VERTEX_POINT('',#203);
#101=PRESENTATION_STYLE_ASSIGNMENT((#204));
#102=EDGE_CURVE('',#80,#100,#205,.T.);
#103=PRESENTATION_STYLE_ASSIGNMENT((#206));
#104=EDGE_CURVE('',#130,#80,#207,.T.);
#105=PRESENTATION_STYLE_ASSIGNMENT((#208));
#106=MANIFOLD_SOLID_BREP('1',#209);
#107=PRESENTATION_STYLE_ASSIGNMENT((#210));
#108=VERTEX_POINT('',#211);
#109=PRESENTATION_STYLE_ASSIGNMENT((#212));
#110=ADVANCED_FACE('',(#213),#214,.T.);
#111=PRESENTATION_STYLE_ASSIGNMENT((#215));
#112=ADVANCED_FACE('',(#216),#217,.F.);
#113=PRESENTATION_STYLE_ASSIGNMENT((#218));
#114=EDGE_CURVE('',#64,#82,#219,.T.);
#115=PRESENTATION_STYLE_ASSIGNMENT((#220));
#116=VERTEX_POINT('',#221);
#117=PRESENTATION_STYLE_ASSIGNMENT((#222));
#118=ADVANCED_FACE('',(#223),#224,.T.);
#119=PRESENTATION_STYLE_ASSIGNMENT((#225));
#120=EDGE_CURVE('',#130,#82,#226,.T.);
#121=PRESENTATION_STYLE_ASSIGNMENT((#227));
#122=EDGE_CURVE('',#138,#130,#228,.T.);
#123=PRESENTATION_STYLE_ASSIGNMENT((#229));
#124=EDGE_CURVE('',#100,#140,#230,.T.);
#125=PRESENTATION_STYLE_ASSIGNMENT((#231));
#126=EDGE_CURVE('',#108,#66,#232,.T.);
#127=PRESENTATION_STYLE_ASSIGNMENT((#233));
#128=EDGE_CURVE('',#66,#64,#234,.T.);
#129=PRESENTATION_STYLE_ASSIGNMENT((#235));
#130=VERTEX_POINT('',#236);
#131=PRESENTATION_STYLE_ASSIGNMENT((#237));
#132=EDGE_CURVE('',#66,#116,#238,.T.);
#133=PRESENTATION_STYLE_ASSIGNMENT((#239));
#134=EDGE_CURVE('',#82,#138,#240,.T.);
#135=PRESENTATION_STYLE_ASSIGNMENT((#241));
#136=EDGE_CURVE('',#80,#64,#242,.T.);
#137=PRESENTATION_STYLE_ASSIGNMENT((#243));
#138=VERTEX_POINT('',#244);
#139=PRESENTATION_STYLE_ASSIGNMENT((#245));
#140=VERTEX_POINT('',#246);
#141=PRESENTATION_STYLE_ASSIGNMENT((#247));
#142=EDGE_CURVE('',#66,#108,#248,.T.);
#143=PRODUCT('1','1','PART-1-DESC',(#249));
#144=PRODUCT_DEFINITION('NONE','NONE',#250,#2);
#145=AXIS2_PLACEMENT_3D('',#251,#252,#253);
#148=LENGTH_MEASURE_WITH_UNIT(LENGTH_MEASURE(1.0),#254);
#151=DIMENSIONAL_EXPONENTS(1.0,0.0,0.0,0.0,0.0,0.0,0.0);
#153=DIMENSIONAL_EXPONENTS(0.0,0.0,0.0,0.0,0.0,0.0,0.0);
#159=POINT_STYLE(' ',#255,POSITIVE_LENGTH_MEASURE(1.0E-006),#256);
#160=CARTESIAN_POINT('',(10.715801027844,6.9547856182758E-014,21.8815659040236));
#161=POINT_STYLE(' ',#257,POSITIVE_LENGTH_MEASURE(1.0E-006),#258);
#162=CARTESIAN_POINT('',(8.00000000000004,3.58605057896979E-015,23.856406460551));
#163=CURVE_STYLE('',#259,POSITIVE_LENGTH_MEASURE(1.0E-006),#260);
#164=LINE('',#261,#262);
#165=SURFACE_STYLE_USAGE(.BOTH.,#263);
#166=FACE_OUTER_BOUND('',#264,.T.);
#167=SPHERICAL_SURFACE('',#265,10.0);
#168=CURVE_STYLE('',#266,POSITIVE_LENGTH_MEASURE(1.0E-006),#267);
#169=CIRCLE('',#268,12.4899959967968);
#170=SURFACE_STYLE_USAGE(.BOTH.,#269);
#171=FACE_OUTER_BOUND('',#270,.T.);
#172=SPHERICAL_SURFACE('',#271,16.0);
#173=SURFACE_STYLE_USAGE(.BOTH.,#272);
#174=FACE_OUTER_BOUND('',#273,.T.);
#175=CYLINDRICAL_SURFACE('',#274,7.99999999999999);
#176=POINT_STYLE(' ',#275,POSITIVE_LENGTH_MEASURE(1.0E-006),#276);
#177=CARTESIAN_POINT('',(-7.99999999999994,1.57999575877113E-015,-2.48689957516035E-014));
#178=POINT_STYLE(' ',#277,POSITIVE_LENGTH_MEASURE(1.0E-006),#278);
#179=CARTESIAN_POINT('',(15.846103177729,2.99166753740839E-012,7.78617659223506));
#180=POINT_STYLE(' ',#279,POSITIVE_LENGTH_MEASURE(1.0E-006),#280);
#181=CARTESIAN_POINT('',(104.412382985174,7.61968930757857E-014,58.6415020266516));
#182=CURVE_STYLE('',#281,POSITIVE_LENGTH_MEASURE(1.0E-006),#282);
#183=CIRCLE('',#283,16.0);
#184=CURVE_STYLE('',#284,POSITIVE_LENGTH_MEASURE(1.0E-006),#285);
#185=CIRCLE('',#286,8.0);
#186=CURVE_STYLE('',#287,POSITIVE_LENGTH_MEASURE(1.0E-006),#288);
#187=CIRCLE('',#289,7.49999999999998);
#188=SURFACE_STYLE_USAGE(.BOTH.,#290);
#189=FACE_BOUND('',#291,.T.);
#190=FACE_OUTER_BOUND('',#292,.T.);
#191=PLANE('',#293);
#192=CURVE_STYLE('',#294,POSITIVE_LENGTH_MEASURE(1.0E-006),#295);
#193=CIRCLE('',#296,8.0);
#194=CURVE_STYLE('',#297,POSITIVE_LENGTH_MEASURE(1.0E-006),#298);
#195=CIRCLE('',#299,9.99692232482357);
#196=SURFACE_STYLE_USAGE(.BOTH.,#300);
#197=FACE_OUTER_BOUND('',#301,.T.);
#198=SPHERICAL_SURFACE('',#302,10.0);
#199=SURFACE_STYLE_USAGE(.BOTH.,#303);
#200=FACE_OUTER_BOUND('',#304,.T.);
#201=CONICAL_SURFACE('',#305,8.74846116241178,0.0248106148955192);
#202=POINT_STYLE(' ',#306,POSITIVE_LENGTH_MEASURE(1.0E-006),#307);
#203=CARTESIAN_POINT('',(12.4899959967969,2.67516299505323E-015,-2.8421709430404E-014));
#204=CURVE_STYLE('',#308,POSITIVE_LENGTH_MEASURE(1.0E-006),#309);
#205=CIRCLE('',#310,16.0);
#206=CURVE_STYLE('',#311,POSITIVE_LENGTH_MEASURE(1.0E-006),#312);
#207=LINE('',#313,#314);
#208=SURFACE_STYLE_USAGE(.BOTH.,#315);
#209=CLOSED_SHELL('',(#118,#112,#70,#110,#98,#96,#90,#76,#74));
#210=POINT_STYLE(' ',#316,POSITIVE_LENGTH_MEASURE(1.0E-006),#317);
#211=CARTESIAN_POINT('',(-7.99999999999992,1.57999575877113E-015,23.856406460551));
#212=SURFACE_STYLE_USAGE(.BOTH.,#318);
#213=FACE_OUTER_BOUND('',#319,.T.);
#214=CONICAL_SURFACE('',#320,8.74846116241178,0.0248106148955192);
#215=SURFACE_STYLE_USAGE(.BOTH.,#321);
#216=FACE_OUTER_BOUND('',#322,.T.);
#217=CYLINDRICAL_SURFACE('',#323,7.99999999999999);
#218=CURVE_STYLE('',#324,POSITIVE_LENGTH_MEASURE(1.0E-006),#325);
#219=LINE('',#326,#327);
#220=POINT_STYLE(' ',#328,POSITIVE_LENGTH_MEASURE(1.0E-006),#329);
#221=CARTESIAN_POINT('',(8.00000000000005,2.12531523242179E-015,-2.48689957516035E-014));
#222=SURFACE_STYLE_USAGE(.BOTH.,#330);
#223=FACE_OUTER_BOUND('',#331,.T.);
#224=SPHERICAL_SURFACE('',#332,16.0);
#225=CURVE_STYLE('',#333,POSITIVE_LENGTH_MEASURE(1.0E-006),#334);
#226=CIRCLE('',#335,9.99692232482357);
#227=CURVE_STYLE('',#336,POSITIVE_LENGTH_MEASURE(1.0E-006),#337);
#228=CIRCLE('',#338,10.0);
#229=CURVE_STYLE('',#339,POSITIVE_LENGTH_MEASURE(1.0E-006),#340);
#230=CIRCLE('',#341,12.4899959967968);
#231=CURVE_STYLE('',#342,POSITIVE_LENGTH_MEASURE(1.0E-006),#343);
#232=CIRCLE('',#344,7.99999999999998);
#233=CURVE_STYLE('',#345,POSITIVE_LENGTH_MEASURE(1.0E-006),#346);
#234=CIRCLE('',#347,16.0);
#235=POINT_STYLE(' ',#348,POSITIVE_LENGTH_MEASURE(1.0E-006),#349);
#236=CARTESIAN_POINT('',(111.250680597878,3.97703016016338E-012,39.8534337482384));
#237=CURVE_STYLE('',#350,POSITIVE_LENGTH_MEASURE(1.0E-006),#351);
#238=LINE('',#352,#353);
#239=CURVE_STYLE('',#354,POSITIVE_LENGTH_MEASURE(1.0E-006),#355);
#240=CIRCLE('',#356,10.0);
#241=CURVE_STYLE('',#357,POSITIVE_LENGTH_MEASURE(1.0E-006),#358);
#242=CIRCLE('',#359,7.49999999999998);
#243=POINT_STYLE(' ',#360,POSITIVE_LENGTH_MEASURE(1.0E-006),#361);
#244=CARTESIAN_POINT('',(117.461577598239,7.50288972225218E-014,52.7525179157084));
#245=POINT_STYLE(' ',#362,POSITIVE_LENGTH_MEASURE(1.0E-006),#363);
#246=CARTESIAN_POINT('',(-12.4899959967967,-1.3011323651036E-015,-2.8421709430404E-014));
#247=CURVE_STYLE('',#364,POSITIVE_LENGTH_MEASURE(1.0E-006),#365);
#248=CIRCLE('',#366,7.99999999999998);
#249=PRODUCT_CONTEXT('',#50,'mechanical');
#250=PRODUCT_DEFINITION_FORMATION_WITH_SPECIFIED_SOURCE(' ','NONE',#143,.NOT_KNOWN.);
#251=CARTESIAN_POINT('',(0.0,0.0,0.0));
#252=DIRECTION('',(0.0,0.0,1.0));
#253=DIRECTION('',(1.0,0.0,0.0));
#254= (NAMED_UNIT(#151)LENGTH_UNIT()SI_UNIT(.MILLI.,.METRE.));
#255=PRE_DEFINED_MARKER('');
#256=COLOUR_RGB('',0.509803950786591,0.509803950786591,0.588235318660736);
#257=PRE_DEFINED_MARKER('');
#258=COLOUR_RGB('',0.509803950786591,0.509803950786591,0.588235318660736);
#259=DRAUGHTING_PRE_DEFINED_CURVE_FONT('continuous');
#260=COLOUR_RGB('',0.509803950786591,0.509803950786591,0.588235318660736);
#261=CARTESIAN_POINT('',(-7.99999999999993,1.57999575877113E-015,11.9282032302755));
#262=VECTOR('',#368,1.0);
#263=SURFACE_SIDE_STYLE('',(#369));
#264=EDGE_LOOP('',(#370,#371,#372));
#265=AXIS2_PLACEMENT_3D('',#373,#374,#375);
#266=DRAUGHTING_PRE_DEFINED_CURVE_FONT('continuous');
#267=COLOUR_RGB('',0.509803950786591,0.509803950786591,0.588235318660736);
#268=AXIS2_PLACEMENT_3D('',#376,#377,#378);
#269=SURFACE_SIDE_STYLE('',(#379));
#270=EDGE_LOOP('',(#380,#381,#382,#383,#384,#385));
#271=AXIS2_PLACEMENT_3D('',#386,#387,#388);
#272=SURFACE_SIDE_STYLE('',(#389));
#273=EDGE_LOOP('',(#390,#391,#392,#393));
#274=AXIS2_PLACEMENT_3D('',#394,#395,#396);
#275=PRE_DEFINED_MARKER('');
#276=COLOUR_RGB('',0.509803950786591,0.509803950786591,0.588235318660736);
#277=PRE_DEFINED_MARKER('');
#278=COLOUR_RGB('',0.509803950786591,0.509803950786591,0.588235318660736);
#279=PRE_DEFINED_MARKER('');
#280=COLOUR_RGB('',0.509803950786591,0.509803950786591,0.588235318660736);
#281=DRAUGHTING_PRE_DEFINED_CURVE_FONT('continuous');
#282=COLOUR_RGB('',0.509803950786591,0.509803950786591,0.588235318660736);
#283=AXIS2_PLACEMENT_3D('',#397,#398,#399);
#284=DRAUGHTING_PRE_DEFINED_CURVE_FONT('continuous');
#285=COLOUR_RGB('',0.509803950786591,0.509803950786591,0.588235318660736);
#286=AXIS2_PLACEMENT_3D('',#400,#401,#402);
#287=DRAUGHTING_PRE_DEFINED_CURVE_FONT('continuous');
#288=COLOUR_RGB('',0.509803950786591,0.509803950786591,0.588235318660736);
#289=AXIS2_PLACEMENT_3D('',#403,#404,#405);
#290=SURFACE_SIDE_STYLE('',(#406));
#291=EDGE_LOOP('',(#407,#408));
#292=EDGE_LOOP('',(#409,#410));
#293=AXIS2_PLACEMENT_3D('',#411,#412,#413);
#294=DRAUGHTING_PRE_DEFINED_CURVE_FONT('continuous');
#295=COLOUR_RGB('',0.509803950786591,0.509803950786591,0.588235318660736);
#296=AXIS2_PLACEMENT_3D('',#414,#415,#416);
#297=DRAUGHTING_PRE_DEFINED_CURVE_FONT('continuous');
#298=COLOUR_RGB('',0.509803950786591,0.509803950786591,0.588235318660736);
#299=AXIS2_PLACEMENT_3D('',#417,#418,#419);
#300=SURFACE_SIDE_STYLE('',(#420));
#301=EDGE_LOOP('',(#421,#422,#423));
#302=AXIS2_PLACEMENT_3D('',#424,#425,#426);
#303=SURFACE_SIDE_STYLE('',(#427));
#304=EDGE_LOOP('',(#428,#429,#430,#431));
#305=AXIS2_PLACEMENT_3D('',#432,#433,#434);
#306=PRE_DEFINED_MARKER('');
#307=COLOUR_RGB('',0.509803950786591,0.509803950786591,0.588235318660736);
#308=DRAUGHTING_PRE_DEFINED_CURVE_FONT('continuous');
#309=COLOUR_RGB('',0.509803950786591,0.509803950786591,0.588235318660736);
#310=AXIS2_PLACEMENT_3D('',#435,#436,#437);
#311=DRAUGHTING_PRE_DEFINED_CURVE_FONT('continuous');
#312=COLOUR_RGB('',0.509803950786591,0.509803950786591,0.588235318660736);
#313=CARTESIAN_POINT('',(63.5483918878035,3.48434884878591E-012,23.8198051702367));
#314=VECTOR('',#438,1.0);
#315=SURFACE_SIDE_STYLE('',(#439));
#316=PRE_DEFINED_MARKER('');
#317=COLOUR_RGB('',0.509803950786591,0.509803950786591,0.588235318660736);
#318=SURFACE_SIDE_STYLE('',(#440));
#319=EDGE_LOOP('',(#441,#442,#443,#444));
#320=AXIS2_PLACEMENT_3D('',#445,#446,#447);
#321=SURFACE_SIDE_STYLE('',(#448));
#322=EDGE_LOOP('',(#449,#450,#451,#452));
#323=AXIS2_PLACEMENT_3D('',#453,#454,#455);
#324=DRAUGHTING_PRE_DEFINED_CURVE_FONT('continuous');
#325=COLOUR_RGB('',0.509803950786591,0.509803950786591,0.588235318660736);
#326=CARTESIAN_POINT('',(57.5640920065093,-3.33386183347214E-012,40.2615339653376));
#327=VECTOR('',#456,1.0);
#328=PRE_DEFINED_MARKER('');
#329=COLOUR_RGB('',0.509803950786591,0.509803950786591,0.588235318660736);
#330=SURFACE_SIDE_STYLE('',(#457));
#331=EDGE_LOOP('',(#458,#459,#460,#461,#462,#463));
#332=AXIS2_PLACEMENT_3D('',#464,#465,#466);
#333=DRAUGHTING_PRE_DEFINED_CURVE_FONT('continuous');
#334=COLOUR_RGB('',0.509803950786591,0.509803950786591,0.588235318660736);
#335=AXIS2_PLACEMENT_3D('',#467,#468,#469);
#336=DRAUGHTING_PRE_DEFINED_CURVE_FONT('continuous');
#337=COLOUR_RGB('',0.509803950786591,0.509803950786591,0.588235318660736);
#338=AXIS2_PLACEMENT_3D('',#470,#471,#472);
#339=DRAUGHTING_PRE_DEFINED_CURVE_FONT('continuous');
#340=COLOUR_RGB('',0.509803950786591,0.509803950786591,0.588235318660736);
#341=AXIS2_PLACEMENT_3D('',#473,#474,#475);
#342=DRAUGHTING_PRE_DEFINED_CURVE_FONT('continuous');
#343=COLOUR_RGB('',0.509803950786591,0.509803950786591,0.588235318660736);
#344=AXIS2_PLACEMENT_3D('',#476,#477,#478);
#345=DRAUGHTING_PRE_DEFINED_CURVE_FONT('continuous');
#346=COLOUR_RGB('',0.509803950786591,0.509803950786591,0.588235318660736);
#347=AXIS2_PLACEMENT_3D('',#479,#480,#481);
#348=PRE_DEFINED_MARKER('');
#349=COLOUR_RGB('',0.509803950786591,0.509803950786591,0.588235318660736);
#350=DRAUGHTING_PRE_DEFINED_CURVE_FONT('continuous');
#351=COLOUR_RGB('',0.509803950786591,0.509803950786591,0.588235318660736);
#352=CARTESIAN_POINT('',(8.00000000000004,3.63273523305265E-015,11.9282032302755));
#353=VECTOR('',#482,1.0);
#354=DRAUGHTING_PRE_DEFINED_CURVE_FONT('continuous');
#355=COLOUR_RGB('',0.509803950786591,0.509803950786591,0.588235318660736);
#356=AXIS2_PLACEMENT_3D('',#483,#484,#485);
#357=DRAUGHTING_PRE_DEFINED_CURVE_FONT('continuous');
#358=COLOUR_RGB('',0.509803950786591,0.509803950786591,0.588235318660736);
#359=AXIS2_PLACEMENT_3D('',#486,#487,#488);
#360=PRE_DEFINED_MARKER('');
#361=COLOUR_RGB('',0.509803950786591,0.509803950786591,0.588235318660736);
#362=PRE_DEFINED_MARKER('');
#363=COLOUR_RGB('',0.509803950786591,0.509803950786591,0.588235318660736);
#364=DRAUGHTING_PRE_DEFINED_CURVE_FONT('continuous');
#365=COLOUR_RGB('',0.509803950786591,0.509803950786591,0.588235318660736);
#366=AXIS2_PLACEMENT_3D('',#489,#490,#491);
#368=DIRECTION('',(-0.0,-0.0,1.0));
#369=SURFACE_STYLE_FILL_AREA(#492);
#370=ORIENTED_EDGE('',*,*,#134,.T.);
#371=ORIENTED_EDGE('',*,*,#122,.T.);
#372=ORIENTED_EDGE('',*,*,#120,.T.);
#373=CARTESIAN_POINT('',(108.06465139038,7.4412749360291E-014,49.3323164824517));
#374=DIRECTION('',(0.939692620785909,1.22845103914205E-016,0.342020143325668));
#375=DIRECTION('',(-0.342020143325668,1.79998313084964E-016,0.939692620785909));
#376=CARTESIAN_POINT('',(5.6843418860808E-014,2.60636549591189E-015,-2.8421709430404E-014));
#377=DIRECTION('',(0.0,0.0,-1.0));
#378=DIRECTION('',(1.0,5.83558176035792E-018,0.0));
#379=SURFACE_STYLE_FILL_AREA(#493);
#380=ORIENTED_EDGE('',*,*,#128,.T.);
#381=ORIENTED_EDGE('',*,*,#88,.T.);
#382=ORIENTED_EDGE('',*,*,#102,.T.);
#383=ORIENTED_EDGE('',*,*,#72,.F.);
#384=ORIENTED_EDGE('',*,*,#84,.T.);
#385=ORIENTED_EDGE('',*,*,#126,.T.);
#386=CARTESIAN_POINT('',(6.03961325396085E-014,1.75793332627508E-015,9.99999999999996));
#387=DIRECTION('',(0.0,0.0,-1.0));
#388=DIRECTION('',(1.0,1.22460635382238E-016,0.0));
#389=SURFACE_STYLE_FILL_AREA(#494);
#390=ORIENTED_EDGE('',*,*,#132,.T.);
#391=ORIENTED_EDGE('',*,*,#92,.T.);
#392=ORIENTED_EDGE('',*,*,#68,.T.);
#393=ORIENTED_EDGE('',*,*,#142,.F.);
#394=CARTESIAN_POINT('',(5.6843418860808E-014,2.60636549591189E-015,11.9282032302755));
#395=DIRECTION('',(-0.0,-0.0,1.0));
#396=DIRECTION('',(1.0,5.8355817603579E-018,0.0));
#397=CARTESIAN_POINT('',(6.03961325396085E-014,1.75793332627508E-015,9.99999999999996));
#398=DIRECTION('',(-2.44921270764475E-016,1.0,0.0));
#399=DIRECTION('',(0.0,0.0,-1.0));
#400=CARTESIAN_POINT('',(5.6843418860808E-014,2.60636549591189E-015,-2.48689957516035E-014));
#401=DIRECTION('',(0.0,0.0,-1.0));
#402=DIRECTION('',(1.0,5.83558176035792E-018,0.0));
#403=CARTESIAN_POINT('',(13.2809521027865,3.49413929943881E-015,14.8338712481294));
#404=DIRECTION('',(-0.939692620785909,-1.22845103914205E-016,-0.342020143325668));
#405=DIRECTION('',(0.342020143325668,0.0,-0.939692620785909));
#406=SURFACE_STYLE_FILL_AREA(#495);
#407=ORIENTED_EDGE('',*,*,#92,.F.);
#408=ORIENTED_EDGE('',*,*,#86,.F.);
#409=ORIENTED_EDGE('',*,*,#124,.T.);
#410=ORIENTED_EDGE('',*,*,#72,.T.);
#411=CARTESIAN_POINT('',(10.2449979983985,2.40023911373751E-015,-2.8421709430404E-014));
#412=DIRECTION('',(0.0,0.0,-1.0));
#413=DIRECTION('',(1.0,1.22460635382238E-016,0.0));
#414=CARTESIAN_POINT('',(5.6843418860808E-014,2.60636549591189E-015,-2.48689957516035E-014));
#415=DIRECTION('',(0.0,0.0,-1.0));
#416=DIRECTION('',(1.0,5.83558176035792E-018,0.0));
#417=CARTESIAN_POINT('',(107.831531791526,8.14237603959606E-014,49.247467887445));
#418=DIRECTION('',(0.939692620785909,1.22845103914194E-016,0.342020143325668));
#419=DIRECTION('',(-0.342020143325668,-3.89803031634134E-013,0.939692620785909));
#420=SURFACE_STYLE_FILL_AREA(#496);
#421=ORIENTED_EDGE('',*,*,#134,.F.);
#422=ORIENTED_EDGE('',*,*,#94,.T.);
#423=ORIENTED_EDGE('',*,*,#122,.F.);
#424=CARTESIAN_POINT('',(108.06465139038,7.4412749360291E-014,49.3323164824517));
#425=DIRECTION('',(0.939692620785909,1.22845103914205E-016,0.342020143325668));
#426=DIRECTION('',(-0.342020143325668,1.79998313084964E-016,0.939692620785909));
#427=SURFACE_STYLE_FILL_AREA(#497);
#428=ORIENTED_EDGE('',*,*,#114,.T.);
#429=ORIENTED_EDGE('',*,*,#120,.F.);
#430=ORIENTED_EDGE('',*,*,#104,.T.);
#431=ORIENTED_EDGE('',*,*,#88,.F.);
#432=CARTESIAN_POINT('',(60.5562419471564,7.52435076568802E-014,32.0406695677871));
#433=DIRECTION('',(0.939692620785909,1.22845103914209E-016,0.342020143325668));
#434=DIRECTION('',(-0.342020143325668,-3.89803031634134E-013,0.939692620785909));
#435=CARTESIAN_POINT('',(6.03961325396085E-014,1.75793332627508E-015,9.99999999999996));
#436=DIRECTION('',(-2.44921270764475E-016,1.0,0.0));
#437=DIRECTION('',(0.0,0.0,-1.0));
#438=DIRECTION('',(-0.947888273421336,-9.79003000101165E-015,-0.318602920749823));
#439=SURFACE_STYLE_FILL_AREA(#498);
#440=SURFACE_STYLE_FILL_AREA(#499);
#441=ORIENTED_EDGE('',*,*,#114,.F.);
#442=ORIENTED_EDGE('',*,*,#136,.F.);
#443=ORIENTED_EDGE('',*,*,#104,.F.);
#444=ORIENTED_EDGE('',*,*,#94,.F.);
#445=CARTESIAN_POINT('',(60.5562419471564,7.52435076568802E-014,32.0406695677871));
#446=DIRECTION('',(0.939692620785909,1.22845103914209E-016,0.342020143325668));
#447=DIRECTION('',(-0.342020143325668,-3.89803031634134E-013,0.939692620785909));
#448=SURFACE_STYLE_FILL_AREA(#500);
#449=ORIENTED_EDGE('',*,*,#132,.F.);
#450=ORIENTED_EDGE('',*,*,#126,.F.);
#451=ORIENTED_EDGE('',*,*,#68,.F.);
#452=ORIENTED_EDGE('',*,*,#86,.T.);
#453=CARTESIAN_POINT('',(5.6843418860808E-014,2.60636549591189E-015,11.9282032302755));
#454=DIRECTION('',(-0.0,-0.0,1.0));
#455=DIRECTION('',(1.0,5.8355817603579E-018,0.0));
#456=DIRECTION('',(0.930918554419987,-9.54441540864865E-015,0.365226840520522));
#457=SURFACE_STYLE_FILL_AREA(#501);
#458=ORIENTED_EDGE('',*,*,#128,.F.);
#459=ORIENTED_EDGE('',*,*,#142,.T.);
#460=ORIENTED_EDGE('',*,*,#84,.F.);
#461=ORIENTED_EDGE('',*,*,#124,.F.);
#462=ORIENTED_EDGE('',*,*,#102,.F.);
#463=ORIENTED_EDGE('',*,*,#136,.T.);
#464=CARTESIAN_POINT('',(6.03961325396085E-014,1.75793332627508E-015,9.99999999999996));
#465=DIRECTION('',(0.0,0.0,-1.0));
#466=DIRECTION('',(1.0,1.22460635382238E-016,0.0));
#467=CARTESIAN_POINT('',(107.831531791526,8.14237603959606E-014,49.247467887445));
#468=DIRECTION('',(0.939692620785909,1.22845103914194E-016,0.342020143325668));
#469=DIRECTION('',(-0.342020143325668,-3.89803031634134E-013,0.939692620785909));
#470=CARTESIAN_POINT('',(108.06465139038,7.4412749360291E-014,49.3323164824517));
#471=DIRECTION('',(-1.19895847429729E-017,1.0,-3.26233942012888E-016));
#472=DIRECTION('',(0.0,-3.26233942012888E-016,-1.0));
#473=CARTESIAN_POINT('',(5.6843418860808E-014,2.60636549591189E-015,-2.8421709430404E-014));
#474=DIRECTION('',(0.0,0.0,-1.0));
#475=DIRECTION('',(1.0,5.83558176035792E-018,0.0));
#476=CARTESIAN_POINT('',(5.6843418860808E-014,2.60636549591189E-015,23.856406460551));
#477=DIRECTION('',(0.0,0.0,-1.0));
#478=DIRECTION('',(1.0,5.83558176035791E-018,0.0));
#479=CARTESIAN_POINT('',(6.03961325396085E-014,1.75793332627508E-015,9.99999999999996));
#480=DIRECTION('',(-2.44921270764475E-016,1.0,0.0));
#481=DIRECTION('',(0.0,0.0,-1.0));
#482=DIRECTION('',(-0.0,-0.0,-1.0));
#483=CARTESIAN_POINT('',(108.06465139038,7.4412749360291E-014,49.3323164824517));
#484=DIRECTION('',(-1.19895847429729E-017,1.0,-3.26233942012888E-016));
#485=DIRECTION('',(0.0,-3.26233942012888E-016,-1.0));
#486=CARTESIAN_POINT('',(13.2809521027865,3.49413929943881E-015,14.8338712481294));
#487=DIRECTION('',(-0.939692620785909,-1.22845103914205E-016,-0.342020143325668));
#488=DIRECTION('',(0.342020143325668,0.0,-0.939692620785909));
#489=CARTESIAN_POINT('',(5.6843418860808E-014,2.60636549591189E-015,23.856406460551));
#490=DIRECTION('',(0.0,0.0,-1.0));
#491=DIRECTION('',(1.0,5.83558176035791E-018,0.0));
#492=FILL_AREA_STYLE('',(#502));
#493=FILL_AREA_STYLE('',(#503));
#494=FILL_AREA_STYLE('',(#504));
#495=FILL_AREA_STYLE('',(#505));
#496=FILL_AREA_STYLE('',(#506));
#497=FILL_AREA_STYLE('',(#507));
#498=FILL_AREA_STYLE('',(#508));
#499=FILL_AREA_STYLE('',(#509));
#500=FILL_AREA_STYLE('',(#510));
#501=FILL_AREA_STYLE('',(#511));
#502=FILL_AREA_STYLE_COLOUR('',#512);
#503=FILL_AREA_STYLE_COLOUR('',#513);
#504=FILL_AREA_STYLE_COLOUR('',#514);
#505=FILL_AREA_STYLE_COLOUR('',#515);
#506=FILL_AREA_STYLE_COLOUR('',#516);
#507=FILL_AREA_STYLE_COLOUR('',#517);
#508=FILL_AREA_STYLE_COLOUR('',#518);
#509=FILL_AREA_STYLE_COLOUR('',#519);
#510=FILL_AREA_STYLE_COLOUR('',#520);
#511=FILL_AREA_STYLE_COLOUR('',#521);
#512=COLOUR_RGB('',0.509803950786591,0.509803950786591,0.588235318660736);
#513=COLOUR_RGB('',0.509803950786591,0.509803950786591,0.588235318660736);
#514=COLOUR_RGB('',0.509803950786591,0.509803950786591,0.588235318660736);
#515=COLOUR_RGB('',0.509803950786591,0.509803950786591,0.588235318660736);
#516=COLOUR_RGB('',0.509803950786591,0.509803950786591,0.588235318660736);
#517=COLOUR_RGB('',0.509803950786591,0.509803950786591,0.588235318660736);
#518=COLOUR_RGB('',0.509803950786591,0.509803950786591,0.588235318660736);
#519=COLOUR_RGB('',0.509803950786591,0.509803950786591,0.588235318660736);
#520=COLOUR_RGB('',0.509803950786591,0.509803950786591,0.588235318660736);
#521=COLOUR_RGB('',0.509803950786591,0.509803950786591,0.588235318660736);
ENDSEC;
END-ISO-10303-21;
