ISO-10303-21;
HEADER;
FILE_DESCRIPTION(('STEP AP214'),'1');
FILE_NAME(' ','  ',('TraceParts'),('TraceParts S.A.'),'XStep 1.0',' ',' ');
FILE_SCHEMA(('automotive_design'));
ENDSEC;
DATA;
#1=MECHANICAL_DESIGN_GEOMETRIC_PRESENTATION_REPRESENTATION(' ',(#10,#11,#12,#13,#14,#15,#16,#17,#18,#19,#20,#21,#22,#23,#24,#25,#26,#27,#28,#29,#30,#31,#32,#33,#34,#35,#36,#37,#38,#39,#40,#41,#42,#43,#44,#45,#46,#47,#48,#49),#6);
#2=PRODUCT_DEFINITION_CONTEXT('',#50,'design');
#3=APPLICATION_PROTOCOL_DEFINITION('INTERNATIONAL STANDARD','automotive_design',1994,#50);
#4=PRODUCT_CATEGORY_RELATIONSHIP('NONE','NONE',#51,#52);
#5=SHAPE_DEFINITION_REPRESENTATION(#53,#54);
#6= (GEOMETRIC_REPRESENTATION_CONTEXT(3)GLOBAL_UNCERTAINTY_ASSIGNED_CONTEXT((#57))GLOBAL_UNIT_ASSIGNED_CONTEXT((#59,#60,#61))REPRESENTATION_CONTEXT('NONE','WORKSPACE'));
#10=STYLED_ITEM('',(#63),#64);
#11=STYLED_ITEM('',(#65),#66);
#12=STYLED_ITEM('',(#67),#68);
#13=STYLED_ITEM('',(#69),#70);
#14=STYLED_ITEM('',(#71),#72);
#15=STYLED_ITEM('',(#73),#74);
#16=STYLED_ITEM('',(#75),#76);
#17=STYLED_ITEM('',(#77),#78);
#18=STYLED_ITEM('',(#79),#80);
#19=STYLED_ITEM('',(#81),#82);
#20=STYLED_ITEM('',(#83),#84);
#21=STYLED_ITEM('',(#85),#86);
#22=STYLED_ITEM('',(#87),#88);
#23=STYLED_ITEM('',(#89),#90);
#24=STYLED_ITEM('',(#91),#92);
#25=STYLED_ITEM('',(#93),#94);
#26=STYLED_ITEM('',(#95),#96);
#27=STYLED_ITEM('',(#97),#98);
#28=STYLED_ITEM('',(#99),#100);
#29=STYLED_ITEM('',(#101),#102);
#30=STYLED_ITEM('',(#103),#104);
#31=STYLED_ITEM('',(#105),#106);
#32=STYLED_ITEM('',(#107),#108);
#33=STYLED_ITEM('',(#109),#110);
#34=STYLED_ITEM('',(#111),#112);
#35=STYLED_ITEM('',(#113),#114);
#36=STYLED_ITEM('',(#115),#116);
#37=STYLED_ITEM('',(#117),#118);
#38=STYLED_ITEM('',(#119),#120);
#39=STYLED_ITEM('',(#121),#122);
#40=STYLED_ITEM('',(#123),#124);
#41=STYLED_ITEM('',(#125),#126);
#42=STYLED_ITEM('',(#127),#128);
#43=STYLED_ITEM('',(#129),#130);
#44=STYLED_ITEM('',(#131),#132);
#45=STYLED_ITEM('',(#133),#134);
#46=STYLED_ITEM('',(#135),#136);
#47=STYLED_ITEM('',(#137),#138);
#48=STYLED_ITEM('',(#139),#140);
#49=STYLED_ITEM('',(#141),#142);
#50=APPLICATION_CONTEXT(' ');
#51=PRODUCT_CATEGORY('part','NONE');
#52=PRODUCT_RELATED_PRODUCT_CATEGORY('detail',' ',(#143));
#53=PRODUCT_DEFINITION_SHAPE('NONE','NONE',#144);
#54=ADVANCED_BREP_SHAPE_REPRESENTATION('1',(#84,#145),#6);
#57=UNCERTAINTY_MEASURE_WITH_UNIT(LENGTH_MEASURE(1.0E-006),#59,'','');
#59= (CONVERSION_BASED_UNIT('MILLIMETRE',#148)LENGTH_UNIT()NAMED_UNIT(#151));
#60= (NAMED_UNIT(#153)PLANE_ANGLE_UNIT()SI_UNIT($,.RADIAN.));
#61= (NAMED_UNIT(#153)SOLID_ANGLE_UNIT()SI_UNIT($,.STERADIAN.));
#63=PRESENTATION_STYLE_ASSIGNMENT((#159));
#64=EDGE_CURVE('',#104,#136,#160,.T.);
#65=PRESENTATION_STYLE_ASSIGNMENT((#161));
#66=ADVANCED_FACE('',(#162),#163,.F.);
#67=PRESENTATION_STYLE_ASSIGNMENT((#164));
#68=EDGE_CURVE('',#92,#116,#165,.T.);
#69=PRESENTATION_STYLE_ASSIGNMENT((#166));
#70=EDGE_CURVE('',#136,#104,#167,.T.);
#71=PRESENTATION_STYLE_ASSIGNMENT((#168));
#72=ADVANCED_FACE('',(#169),#170,.T.);
#73=PRESENTATION_STYLE_ASSIGNMENT((#171));
#74=VERTEX_POINT('',#172);
#75=PRESENTATION_STYLE_ASSIGNMENT((#173));
#76=ADVANCED_FACE('',(#174),#175,.T.);
#77=PRESENTATION_STYLE_ASSIGNMENT((#176));
#78=EDGE_CURVE('',#74,#124,#177,.T.);
#79=PRESENTATION_STYLE_ASSIGNMENT((#178));
#80=ADVANCED_FACE('',(#179),#180,.F.);
#81=PRESENTATION_STYLE_ASSIGNMENT((#181));
#82=EDGE_CURVE('',#86,#92,#182,.T.);
#83=PRESENTATION_STYLE_ASSIGNMENT((#183));
#84=MANIFOLD_SOLID_BREP('1',#184);
#85=PRESENTATION_STYLE_ASSIGNMENT((#185));
#86=VERTEX_POINT('',#186);
#87=PRESENTATION_STYLE_ASSIGNMENT((#187));
#88=VERTEX_POINT('',#188);
#89=PRESENTATION_STYLE_ASSIGNMENT((#189));
#90=EDGE_CURVE('',#116,#114,#190,.T.);
#91=PRESENTATION_STYLE_ASSIGNMENT((#191));
#92=VERTEX_POINT('',#192);
#93=PRESENTATION_STYLE_ASSIGNMENT((#193));
#94=EDGE_CURVE('',#124,#92,#194,.T.);
#95=PRESENTATION_STYLE_ASSIGNMENT((#195));
#96=EDGE_CURVE('',#86,#74,#196,.T.);
#97=PRESENTATION_STYLE_ASSIGNMENT((#197));
#98=ADVANCED_FACE('',(#198),#199,.T.);
#99=PRESENTATION_STYLE_ASSIGNMENT((#200));
#100=EDGE_CURVE('',#136,#88,#201,.T.);
#101=PRESENTATION_STYLE_ASSIGNMENT((#202));
#102=EDGE_CURVE('',#92,#86,#203,.T.);
#103=PRESENTATION_STYLE_ASSIGNMENT((#204));
#104=VERTEX_POINT('',#205);
#105=PRESENTATION_STYLE_ASSIGNMENT((#206));
#106=EDGE_CURVE('',#124,#74,#207,.T.);
#107=PRESENTATION_STYLE_ASSIGNMENT((#208));
#108=EDGE_CURVE('',#138,#124,#209,.T.);
#109=PRESENTATION_STYLE_ASSIGNMENT((#210));
#110=EDGE_CURVE('',#88,#142,#211,.T.);
#111=PRESENTATION_STYLE_ASSIGNMENT((#212));
#112=EDGE_CURVE('',#142,#86,#213,.T.);
#113=PRESENTATION_STYLE_ASSIGNMENT((#214));
#114=VERTEX_POINT('',#215);
#115=PRESENTATION_STYLE_ASSIGNMENT((#216));
#116=VERTEX_POINT('',#217);
#117=PRESENTATION_STYLE_ASSIGNMENT((#218));
#118=ADVANCED_FACE('',(#219),#220,.T.);
#119=PRESENTATION_STYLE_ASSIGNMENT((#221));
#120=EDGE_CURVE('',#142,#88,#222,.T.);
#121=PRESENTATION_STYLE_ASSIGNMENT((#223));
#122=ADVANCED_FACE('',(#224),#225,.T.);
#123=PRESENTATION_STYLE_ASSIGNMENT((#226));
#124=VERTEX_POINT('',#227);
#125=PRESENTATION_STYLE_ASSIGNMENT((#228));
#126=EDGE_CURVE('',#114,#116,#229,.T.);
#127=PRESENTATION_STYLE_ASSIGNMENT((#230));
#128=ADVANCED_FACE('',(#231,#232),#233,.T.);
#129=PRESENTATION_STYLE_ASSIGNMENT((#234));
#130=EDGE_CURVE('',#74,#138,#235,.T.);
#131=PRESENTATION_STYLE_ASSIGNMENT((#236));
#132=EDGE_CURVE('',#142,#104,#237,.T.);
#133=PRESENTATION_STYLE_ASSIGNMENT((#238));
#134=EDGE_CURVE('',#114,#88,#239,.T.);
#135=PRESENTATION_STYLE_ASSIGNMENT((#240));
#136=VERTEX_POINT('',#241);
#137=PRESENTATION_STYLE_ASSIGNMENT((#242));
#138=VERTEX_POINT('',#243);
#139=PRESENTATION_STYLE_ASSIGNMENT((#244));
#140=ADVANCED_FACE('',(#245),#246,.T.);
#141=PRESENTATION_STYLE_ASSIGNMENT((#247));
#142=VERTEX_POINT('',#248);
#143=PRODUCT('1','1','PART-1-DESC',(#249));
#144=PRODUCT_DEFINITION('NONE','NONE',#250,#2);
#145=AXIS2_PLACEMENT_3D('',#251,#252,#253);
#148=LENGTH_MEASURE_WITH_UNIT(LENGTH_MEASURE(1.0),#254);
#151=DIMENSIONAL_EXPONENTS(1.0,0.0,0.0,0.0,0.0,0.0,0.0);
#153=DIMENSIONAL_EXPONENTS(0.0,0.0,0.0,0.0,0.0,0.0,0.0);
#159=CURVE_STYLE('',#255,POSITIVE_LENGTH_MEASURE(1.0E-006),#256);
#160=CIRCLE('',#257,9.99999999999999);
#161=SURFACE_STYLE_USAGE(.BOTH.,#258);
#162=FACE_OUTER_BOUND('',#259,.T.);
#163=CYLINDRICAL_SURFACE('',#260,9.99999999999999);
#164=CURVE_STYLE('',#261,POSITIVE_LENGTH_MEASURE(1.0E-006),#262);
#165=CIRCLE('',#263,20.0);
#166=CURVE_STYLE('',#264,POSITIVE_LENGTH_MEASURE(1.0E-006),#265);
#167=CIRCLE('',#266,9.99999999999999);
#168=SURFACE_STYLE_USAGE(.BOTH.,#267);
#169=FACE_OUTER_BOUND('',#268,.T.);
#170=SPHERICAL_SURFACE('',#269,12.5);
#171=POINT_STYLE(' ',#270,POSITIVE_LENGTH_MEASURE(1.0E-006),#271);
#172=CARTESIAN_POINT('',(134.013550991941,7.9241403394824E-014,74.5743077818637));
#173=SURFACE_STYLE_USAGE(.BOTH.,#272);
#174=FACE_OUTER_BOUND('',#273,.T.);
#175=CONICAL_SURFACE('',#274,10.7477175225827,0.0270266023389609);
#176=CURVE_STYLE('',#275,POSITIVE_LENGTH_MEASURE(1.0E-006),#276);
#177=CIRCLE('',#277,12.4954350451655);
#178=SURFACE_STYLE_USAGE(.BOTH.,#278);
#179=FACE_OUTER_BOUND('',#279,.T.);
#180=CYLINDRICAL_SURFACE('',#280,9.99999999999999);
#181=CURVE_STYLE('',#281,POSITIVE_LENGTH_MEASURE(1.0E-006),#282);
#182=CIRCLE('',#283,9.00000000000009);
#183=SURFACE_STYLE_USAGE(.BOTH.,#284);
#184=CLOSED_SHELL('',(#98,#80,#72,#140,#76,#122,#128,#66,#118));
#185=POINT_STYLE(' ',#285,POSITIVE_LENGTH_MEASURE(1.0E-006),#286);
#186=CARTESIAN_POINT('',(13.7052655752835,7.06453382305038E-014,27.0659086743996));
#187=POINT_STYLE(' ',#287,POSITIVE_LENGTH_MEASURE(1.0E-006),#288);
#188=CARTESIAN_POINT('',(-9.99999999999993,5.93035651211937E-016,29.8205080756888));
#189=CURVE_STYLE('',#289,POSITIVE_LENGTH_MEASURE(1.0E-006),#290);
#190=CIRCLE('',#291,15.612494995996);
#191=POINT_STYLE(' ',#292,POSITIVE_LENGTH_MEASURE(1.0E-006),#293);
#192=CARTESIAN_POINT('',(19.8616281551455,3.65649589325301E-012,10.1514415002532));
#193=CURVE_STYLE('',#294,POSITIVE_LENGTH_MEASURE(1.0E-006),#295);
#194=LINE('',#296,#297);
#195=CURVE_STYLE('',#298,POSITIVE_LENGTH_MEASURE(1.0E-006),#299);
#196=LINE('',#300,#301);
#197=SURFACE_STYLE_USAGE(.BOTH.,#302);
#198=FACE_OUTER_BOUND('',#303,.T.);
#199=SPHERICAL_SURFACE('',#304,20.0);
#200=CURVE_STYLE('',#305,POSITIVE_LENGTH_MEASURE(1.0E-006),#306);
#201=LINE('',#307,#308);
#202=CURVE_STYLE('',#309,POSITIVE_LENGTH_MEASURE(1.0E-006),#310);
#203=CIRCLE('',#311,9.00000000000009);
#204=POINT_STYLE(' ',#312,POSITIVE_LENGTH_MEASURE(1.0E-006),#313);
#205=CARTESIAN_POINT('',(10.0000000000001,1.27468499327527E-015,-2.8421709430404E-014));
#206=CURVE_STYLE('',#314,POSITIVE_LENGTH_MEASURE(1.0E-006),#315);
#207=CIRCLE('',#316,12.4954350451655);
#208=CURVE_STYLE('',#317,POSITIVE_LENGTH_MEASURE(1.0E-006),#318);
#209=CIRCLE('',#319,12.5);
#210=CURVE_STYLE('',#320,POSITIVE_LENGTH_MEASURE(1.0E-006),#321);
#211=CIRCLE('',#322,9.99999999999999);
#212=CURVE_STYLE('',#323,POSITIVE_LENGTH_MEASURE(1.0E-006),#324);
#213=CIRCLE('',#325,20.0);
#214=POINT_STYLE(' ',#326,POSITIVE_LENGTH_MEASURE(1.0E-006),#327);
#215=CARTESIAN_POINT('',(-15.6124949959959,-3.00837450363147E-015,-3.19744231092045E-014));
#216=POINT_STYLE(' ',#328,POSITIVE_LENGTH_MEASURE(1.0E-006),#329);
#217=CARTESIAN_POINT('',(15.6124949959961,1.96199469656457E-015,-3.19744231092045E-014));
#218=SURFACE_STYLE_USAGE(.BOTH.,#330);
#219=FACE_OUTER_BOUND('',#331,.T.);
#220=SPHERICAL_SURFACE('',#332,20.0);
#221=CURVE_STYLE('',#333,POSITIVE_LENGTH_MEASURE(1.0E-006),#334);
#222=CIRCLE('',#335,9.99999999999999);
#223=SURFACE_STYLE_USAGE(.BOTH.,#336);
#224=FACE_OUTER_BOUND('',#337,.T.);
#225=SPHERICAL_SURFACE('',#338,12.5);
#226=POINT_STYLE(' ',#339,POSITIVE_LENGTH_MEASURE(1.0E-006),#340);
#227=CARTESIAN_POINT('',(142.560931962069,5.0652630342566E-012,51.0905715709604));
#228=CURVE_STYLE('',#341,POSITIVE_LENGTH_MEASURE(1.0E-006),#342);
#229=CIRCLE('',#343,15.612494995996);
#230=SURFACE_STYLE_USAGE(.BOTH.,#344);
#231=FACE_BOUND('',#345,.T.);
#232=FACE_OUTER_BOUND('',#346,.T.);
#233=PLANE('',#347);
#234=CURVE_STYLE('',#348,POSITIVE_LENGTH_MEASURE(1.0E-006),#349);
#235=CIRCLE('',#350,12.5);
#236=CURVE_STYLE('',#351,POSITIVE_LENGTH_MEASURE(1.0E-006),#352);
#237=LINE('',#353,#354);
#238=CURVE_STYLE('',#355,POSITIVE_LENGTH_MEASURE(1.0E-006),#356);
#239=CIRCLE('',#357,20.0);
#240=POINT_STYLE(' ',#358,POSITIVE_LENGTH_MEASURE(1.0E-006),#359);
#241=CARTESIAN_POINT('',(-9.99999999999994,5.93035651211937E-016,-2.8421709430404E-014));
#242=POINT_STYLE(' ',#360,POSITIVE_LENGTH_MEASURE(1.0E-006),#361);
#243=CARTESIAN_POINT('',(150.350819325745,7.77832439383137E-014,67.2232229321068));
#244=SURFACE_STYLE_USAGE(.BOTH.,#362);
#245=FACE_OUTER_BOUND('',#363,.T.);
#246=CONICAL_SURFACE('',#364,10.7477175225827,0.0270266023389609);
#247=POINT_STYLE(' ',#365,POSITIVE_LENGTH_MEASURE(1.0E-006),#366);
#248=CARTESIAN_POINT('',(10.0,3.10060417646027E-015,29.8205080756888));
#249=PRODUCT_CONTEXT('',#50,'mechanical');
#250=PRODUCT_DEFINITION_FORMATION_WITH_SPECIFIED_SOURCE(' ','NONE',#143,.NOT_KNOWN.);
#251=CARTESIAN_POINT('',(0.0,0.0,0.0));
#252=DIRECTION('',(0.0,0.0,1.0));
#253=DIRECTION('',(1.0,0.0,0.0));
#254= (NAMED_UNIT(#151)LENGTH_UNIT()SI_UNIT(.MILLI.,.METRE.));
#255=DRAUGHTING_PRE_DEFINED_CURVE_FONT('continuous');
#256=COLOUR_RGB('',0.509803950786591,0.509803950786591,0.588235318660736);
#257=AXIS2_PLACEMENT_3D('',#368,#369,#370);
#258=SURFACE_SIDE_STYLE('',(#371));
#259=EDGE_LOOP('',(#372,#373,#374,#375));
#260=AXIS2_PLACEMENT_3D('',#376,#377,#378);
#261=DRAUGHTING_PRE_DEFINED_CURVE_FONT('continuous');
#262=COLOUR_RGB('',0.509803950786591,0.509803950786591,0.588235318660736);
#263=AXIS2_PLACEMENT_3D('',#379,#380,#381);
#264=DRAUGHTING_PRE_DEFINED_CURVE_FONT('continuous');
#265=COLOUR_RGB('',0.509803950786591,0.509803950786591,0.588235318660736);
#266=AXIS2_PLACEMENT_3D('',#382,#383,#384);
#267=SURFACE_SIDE_STYLE('',(#385));
#268=EDGE_LOOP('',(#386,#387,#388));
#269=AXIS2_PLACEMENT_3D('',#389,#390,#391);
#270=PRE_DEFINED_MARKER('');
#271=COLOUR_RGB('',0.509803950786591,0.509803950786591,0.588235318660736);
#272=SURFACE_SIDE_STYLE('',(#392));
#273=EDGE_LOOP('',(#393,#394,#395,#396));
#274=AXIS2_PLACEMENT_3D('',#397,#398,#399);
#275=DRAUGHTING_PRE_DEFINED_CURVE_FONT('continuous');
#276=COLOUR_RGB('',0.509803950786591,0.509803950786591,0.588235318660736);
#277=AXIS2_PLACEMENT_3D('',#400,#401,#402);
#278=SURFACE_SIDE_STYLE('',(#403));
#279=EDGE_LOOP('',(#404,#405,#406,#407));
#280=AXIS2_PLACEMENT_3D('',#408,#409,#410);
#281=DRAUGHTING_PRE_DEFINED_CURVE_FONT('continuous');
#282=COLOUR_RGB('',0.509803950786591,0.509803950786591,0.588235318660736);
#283=AXIS2_PLACEMENT_3D('',#411,#412,#413);
#284=SURFACE_SIDE_STYLE('',(#414));
#285=PRE_DEFINED_MARKER('');
#286=COLOUR_RGB('',0.509803950786591,0.509803950786591,0.588235318660736);
#287=PRE_DEFINED_MARKER('');
#288=COLOUR_RGB('',0.509803950786591,0.509803950786591,0.588235318660736);
#289=DRAUGHTING_PRE_DEFINED_CURVE_FONT('continuous');
#290=COLOUR_RGB('',0.509803950786591,0.509803950786591,0.588235318660736);
#291=AXIS2_PLACEMENT_3D('',#415,#416,#417);
#292=PRE_DEFINED_MARKER('');
#293=COLOUR_RGB('',0.509803950786591,0.509803950786591,0.588235318660736);
#294=DRAUGHTING_PRE_DEFINED_CURVE_FONT('continuous');
#295=COLOUR_RGB('',0.509803950786591,0.509803950786591,0.588235318660736);
#296=CARTESIAN_POINT('',(81.2112800586072,4.36087946375482E-012,30.6210065356068));
#297=VECTOR('',#418,1.0);
#298=DRAUGHTING_PRE_DEFINED_CURVE_FONT('continuous');
#299=COLOUR_RGB('',0.509803950786591,0.509803950786591,0.588235318660736);
#300=CARTESIAN_POINT('',(73.8594082836121,-4.20475746694957E-012,50.8201082281316));
#301=VECTOR('',#419,1.0);
#302=SURFACE_SIDE_STYLE('',(#420));
#303=EDGE_LOOP('',(#421,#422,#423,#424,#425,#426));
#304=AXIS2_PLACEMENT_3D('',#427,#428,#429);
#305=DRAUGHTING_PRE_DEFINED_CURVE_FONT('continuous');
#306=COLOUR_RGB('',0.509803950786591,0.509803950786591,0.588235318660736);
#307=CARTESIAN_POINT('',(-9.99999999999993,5.93035651211937E-016,14.9102540378444));
#308=VECTOR('',#430,1.0);
#309=DRAUGHTING_PRE_DEFINED_CURVE_FONT('continuous');
#310=COLOUR_RGB('',0.509803950786591,0.509803950786591,0.588235318660736);
#311=AXIS2_PLACEMENT_3D('',#431,#432,#433);
#312=PRE_DEFINED_MARKER('');
#313=COLOUR_RGB('',0.509803950786591,0.509803950786591,0.588235318660736);
#314=DRAUGHTING_PRE_DEFINED_CURVE_FONT('continuous');
#315=COLOUR_RGB('',0.509803950786591,0.509803950786591,0.588235318660736);
#316=AXIS2_PLACEMENT_3D('',#434,#435,#436);
#317=DRAUGHTING_PRE_DEFINED_CURVE_FONT('continuous');
#318=COLOUR_RGB('',0.509803950786591,0.509803950786591,0.588235318660736);
#319=AXIS2_PLACEMENT_3D('',#437,#438,#439);
#320=DRAUGHTING_PRE_DEFINED_CURVE_FONT('continuous');
#321=COLOUR_RGB('',0.509803950786591,0.509803950786591,0.588235318660736);
#322=AXIS2_PLACEMENT_3D('',#440,#441,#442);
#323=DRAUGHTING_PRE_DEFINED_CURVE_FONT('continuous');
#324=COLOUR_RGB('',0.509803950786591,0.509803950786591,0.588235318660736);
#325=AXIS2_PLACEMENT_3D('',#443,#444,#445);
#326=PRE_DEFINED_MARKER('');
#327=COLOUR_RGB('',0.509803950786591,0.509803950786591,0.588235318660736);
#328=PRE_DEFINED_MARKER('');
#329=COLOUR_RGB('',0.509803950786591,0.509803950786591,0.588235318660736);
#330=SURFACE_SIDE_STYLE('',(#446));
#331=EDGE_LOOP('',(#447,#448,#449,#450,#451,#452));
#332=AXIS2_PLACEMENT_3D('',#453,#454,#455);
#333=DRAUGHTING_PRE_DEFINED_CURVE_FONT('continuous');
#334=COLOUR_RGB('',0.509803950786591,0.509803950786591,0.588235318660736);
#335=AXIS2_PLACEMENT_3D('',#456,#457,#458);
#336=SURFACE_SIDE_STYLE('',(#459));
#337=EDGE_LOOP('',(#460,#461,#462));
#338=AXIS2_PLACEMENT_3D('',#463,#464,#465);
#339=PRE_DEFINED_MARKER('');
#340=COLOUR_RGB('',0.509803950786591,0.509803950786591,0.588235318660736);
#341=DRAUGHTING_PRE_DEFINED_CURVE_FONT('continuous');
#342=COLOUR_RGB('',0.509803950786591,0.509803950786591,0.588235318660736);
#343=AXIS2_PLACEMENT_3D('',#466,#467,#468);
#344=SURFACE_SIDE_STYLE('',(#469));
#345=EDGE_LOOP('',(#470,#471));
#346=EDGE_LOOP('',(#472,#473));
#347=AXIS2_PLACEMENT_3D('',#474,#475,#476);
#348=DRAUGHTING_PRE_DEFINED_CURVE_FONT('continuous');
#349=COLOUR_RGB('',0.509803950786591,0.509803950786591,0.588235318660736);
#350=AXIS2_PLACEMENT_3D('',#477,#478,#479);
#351=DRAUGHTING_PRE_DEFINED_CURVE_FONT('continuous');
#352=COLOUR_RGB('',0.509803950786591,0.509803950786591,0.588235318660736);
#353=CARTESIAN_POINT('',(10.0,3.15895999406385E-015,14.9102540378444));
#354=VECTOR('',#480,1.0);
#355=DRAUGHTING_PRE_DEFINED_CURVE_FONT('continuous');
#356=COLOUR_RGB('',0.509803950786591,0.509803950786591,0.588235318660736);
#357=AXIS2_PLACEMENT_3D('',#481,#482,#483);
#358=PRE_DEFINED_MARKER('');
#359=COLOUR_RGB('',0.509803950786591,0.509803950786591,0.588235318660736);
#360=PRE_DEFINED_MARKER('');
#361=COLOUR_RGB('',0.509803950786591,0.509803950786591,0.588235318660736);
#362=SURFACE_SIDE_STYLE('',(#484));
#363=EDGE_LOOP('',(#485,#486,#487,#488));
#364=AXIS2_PLACEMENT_3D('',#489,#490,#491);
#365=PRE_DEFINED_MARKER('');
#366=COLOUR_RGB('',0.509803950786591,0.509803950786591,0.588235318660736);
#368=CARTESIAN_POINT('',(5.6843418860808E-014,1.87599782263789E-015,-2.8421709430404E-014));
#369=DIRECTION('',(0.0,0.0,-1.0));
#370=DIRECTION('',(1.0,5.835581760358E-018,0.0));
#371=SURFACE_STYLE_FILL_AREA(#492);
#372=ORIENTED_EDGE('',*,*,#132,.T.);
#373=ORIENTED_EDGE('',*,*,#64,.T.);
#374=ORIENTED_EDGE('',*,*,#100,.T.);
#375=ORIENTED_EDGE('',*,*,#120,.F.);
#376=CARTESIAN_POINT('',(5.6843418860808E-014,1.87599782263789E-015,14.9102540378444));
#377=DIRECTION('',(-0.0,-0.0,1.0));
#378=DIRECTION('',(1.0,5.83558176035798E-018,0.0));
#379=CARTESIAN_POINT('',(5.50670620214078E-014,8.1545761059188E-016,12.5));
#380=DIRECTION('',(-2.44921270764475E-016,1.0,0.0));
#381=DIRECTION('',(0.0,0.0,-1.0));
#382=CARTESIAN_POINT('',(5.6843418860808E-014,1.87599782263789E-015,-2.8421709430404E-014));
#383=DIRECTION('',(0.0,0.0,-1.0));
#384=DIRECTION('',(1.0,5.835581760358E-018,0.0));
#385=SURFACE_STYLE_FILL_AREA(#493);
#386=ORIENTED_EDGE('',*,*,#130,.T.);
#387=ORIENTED_EDGE('',*,*,#108,.T.);
#388=ORIENTED_EDGE('',*,*,#106,.T.);
#389=CARTESIAN_POINT('',(138.604661565922,7.70130591105253E-014,62.9479711405359));
#390=DIRECTION('',(0.939692620785909,1.22845103914193E-016,0.342020143325668));
#391=DIRECTION('',(-0.342020143325668,1.79998313084964E-016,0.939692620785909));
#392=SURFACE_STYLE_FILL_AREA(#494);
#393=ORIENTED_EDGE('',*,*,#96,.T.);
#394=ORIENTED_EDGE('',*,*,#106,.F.);
#395=ORIENTED_EDGE('',*,*,#94,.T.);
#396=ORIENTED_EDGE('',*,*,#82,.F.);
#397=CARTESIAN_POINT('',(77.5353441711096,7.80609984026242E-014,40.7205573818692));
#398=DIRECTION('',(0.939692620785909,1.22845103914224E-016,0.342020143325668));
#399=DIRECTION('',(-0.342020143325668,-3.98608786346239E-013,0.939692620785909));
#400=CARTESIAN_POINT('',(138.287241477005,8.60030349499425E-014,62.832439676412));
#401=DIRECTION('',(0.939692620785909,1.22845103914191E-016,0.342020143325668));
#402=DIRECTION('',(-0.342020143325668,-3.98608786346239E-013,0.939692620785908));
#403=SURFACE_STYLE_FILL_AREA(#495);
#404=ORIENTED_EDGE('',*,*,#132,.F.);
#405=ORIENTED_EDGE('',*,*,#110,.F.);
#406=ORIENTED_EDGE('',*,*,#100,.F.);
#407=ORIENTED_EDGE('',*,*,#70,.T.);
#408=CARTESIAN_POINT('',(5.6843418860808E-014,1.87599782263789E-015,14.9102540378444));
#409=DIRECTION('',(-0.0,-0.0,1.0));
#410=DIRECTION('',(1.0,5.83558176035798E-018,0.0));
#411=CARTESIAN_POINT('',(16.7834468652145,3.00954132327577E-015,18.6086750873264));
#412=DIRECTION('',(-0.939692620785909,-1.22845103914193E-016,-0.342020143325668));
#413=DIRECTION('',(0.342020143325668,0.0,-0.939692620785909));
#414=SURFACE_STYLE_FILL_AREA(#496);
#415=CARTESIAN_POINT('',(5.6843418860808E-014,1.87599782263789E-015,-3.19744231092045E-014));
#416=DIRECTION('',(0.0,0.0,-1.0));
#417=DIRECTION('',(1.0,5.835581760358E-018,0.0));
#418=DIRECTION('',(-0.94859196556604,-1.08912206495667E-014,-0.316501631691775));
#419=DIRECTION('',(0.93010693130622,-1.06456201669146E-014,0.367288845918476));
#420=SURFACE_STYLE_FILL_AREA(#497);
#421=ORIENTED_EDGE('',*,*,#112,.F.);
#422=ORIENTED_EDGE('',*,*,#120,.T.);
#423=ORIENTED_EDGE('',*,*,#134,.F.);
#424=ORIENTED_EDGE('',*,*,#90,.F.);
#425=ORIENTED_EDGE('',*,*,#68,.F.);
#426=ORIENTED_EDGE('',*,*,#102,.T.);
#427=CARTESIAN_POINT('',(5.50670620214078E-014,8.1545761059188E-016,12.5));
#428=DIRECTION('',(0.0,0.0,-1.0));
#429=DIRECTION('',(1.0,1.22460635382238E-016,0.0));
#430=DIRECTION('',(-0.0,-0.0,1.0));
#431=CARTESIAN_POINT('',(16.7834468652145,3.00954132327577E-015,18.6086750873264));
#432=DIRECTION('',(-0.939692620785909,-1.22845103914193E-016,-0.342020143325668));
#433=DIRECTION('',(0.342020143325668,0.0,-0.939692620785909));
#434=CARTESIAN_POINT('',(138.287241477005,8.60030349499425E-014,62.832439676412));
#435=DIRECTION('',(0.939692620785909,1.22845103914191E-016,0.342020143325668));
#436=DIRECTION('',(-0.342020143325668,-3.98608786346239E-013,0.939692620785908));
#437=CARTESIAN_POINT('',(138.604661565922,7.70130591105253E-014,62.9479711405359));
#438=DIRECTION('',(-1.19895847429617E-017,1.0,-3.26233942012884E-016));
#439=DIRECTION('',(0.0,-3.26233942012884E-016,-1.0));
#440=CARTESIAN_POINT('',(5.6843418860808E-014,1.87599782263789E-015,29.8205080756888));
#441=DIRECTION('',(0.0,0.0,-1.0));
#442=DIRECTION('',(1.0,5.83558176035799E-018,0.0));
#443=CARTESIAN_POINT('',(5.50670620214078E-014,8.1545761059188E-016,12.5));
#444=DIRECTION('',(-2.44921270764475E-016,1.0,0.0));
#445=DIRECTION('',(0.0,0.0,-1.0));
#446=SURFACE_STYLE_FILL_AREA(#498);
#447=ORIENTED_EDGE('',*,*,#112,.T.);
#448=ORIENTED_EDGE('',*,*,#82,.T.);
#449=ORIENTED_EDGE('',*,*,#68,.T.);
#450=ORIENTED_EDGE('',*,*,#126,.F.);
#451=ORIENTED_EDGE('',*,*,#134,.T.);
#452=ORIENTED_EDGE('',*,*,#110,.T.);
#453=CARTESIAN_POINT('',(5.50670620214078E-014,8.1545761059188E-016,12.5));
#454=DIRECTION('',(0.0,0.0,-1.0));
#455=DIRECTION('',(1.0,1.22460635382238E-016,0.0));
#456=CARTESIAN_POINT('',(5.6843418860808E-014,1.87599782263789E-015,29.8205080756888));
#457=DIRECTION('',(0.0,0.0,-1.0));
#458=DIRECTION('',(1.0,5.83558176035799E-018,0.0));
#459=SURFACE_STYLE_FILL_AREA(#499);
#460=ORIENTED_EDGE('',*,*,#130,.F.);
#461=ORIENTED_EDGE('',*,*,#78,.T.);
#462=ORIENTED_EDGE('',*,*,#108,.F.);
#463=CARTESIAN_POINT('',(138.604661565922,7.70130591105253E-014,62.9479711405359));
#464=DIRECTION('',(0.939692620785909,1.22845103914193E-016,0.342020143325668));
#465=DIRECTION('',(-0.342020143325668,1.79998313084964E-016,0.939692620785909));
#466=CARTESIAN_POINT('',(5.6843418860808E-014,1.87599782263789E-015,-3.19744231092045E-014));
#467=DIRECTION('',(0.0,0.0,-1.0));
#468=DIRECTION('',(1.0,5.835581760358E-018,0.0));
#469=SURFACE_STYLE_FILL_AREA(#500);
#470=ORIENTED_EDGE('',*,*,#64,.F.);
#471=ORIENTED_EDGE('',*,*,#70,.F.);
#472=ORIENTED_EDGE('',*,*,#90,.T.);
#473=ORIENTED_EDGE('',*,*,#126,.T.);
#474=CARTESIAN_POINT('',(12.8062474979981,1.61833984491992E-015,-2.8421709430404E-014));
#475=DIRECTION('',(0.0,0.0,-1.0));
#476=DIRECTION('',(1.0,1.22460635382238E-016,0.0));
#477=CARTESIAN_POINT('',(138.604661565922,7.70130591105253E-014,62.9479711405359));
#478=DIRECTION('',(-1.19895847429617E-017,1.0,-3.26233942012884E-016));
#479=DIRECTION('',(0.0,-3.26233942012884E-016,-1.0));
#480=DIRECTION('',(-0.0,-0.0,-1.0));
#481=CARTESIAN_POINT('',(5.50670620214078E-014,8.1545761059188E-016,12.5));
#482=DIRECTION('',(-2.44921270764475E-016,1.0,0.0));
#483=DIRECTION('',(0.0,0.0,-1.0));
#484=SURFACE_STYLE_FILL_AREA(#501);
#485=ORIENTED_EDGE('',*,*,#96,.F.);
#486=ORIENTED_EDGE('',*,*,#102,.F.);
#487=ORIENTED_EDGE('',*,*,#94,.F.);
#488=ORIENTED_EDGE('',*,*,#78,.F.);
#489=CARTESIAN_POINT('',(77.5353441711096,7.80609984026242E-014,40.7205573818692));
#490=DIRECTION('',(0.939692620785909,1.22845103914224E-016,0.342020143325668));
#491=DIRECTION('',(-0.342020143325668,-3.98608786346239E-013,0.939692620785909));
#492=FILL_AREA_STYLE('',(#502));
#493=FILL_AREA_STYLE('',(#503));
#494=FILL_AREA_STYLE('',(#504));
#495=FILL_AREA_STYLE('',(#505));
#496=FILL_AREA_STYLE('',(#506));
#497=FILL_AREA_STYLE('',(#507));
#498=FILL_AREA_STYLE('',(#508));
#499=FILL_AREA_STYLE('',(#509));
#500=FILL_AREA_STYLE('',(#510));
#501=FILL_AREA_STYLE('',(#511));
#502=FILL_AREA_STYLE_COLOUR('',#512);
#503=FILL_AREA_STYLE_COLOUR('',#513);
#504=FILL_AREA_STYLE_COLOUR('',#514);
#505=FILL_AREA_STYLE_COLOUR('',#515);
#506=FILL_AREA_STYLE_COLOUR('',#516);
#507=FILL_AREA_STYLE_COLOUR('',#517);
#508=FILL_AREA_STYLE_COLOUR('',#518);
#509=FILL_AREA_STYLE_COLOUR('',#519);
#510=FILL_AREA_STYLE_COLOUR('',#520);
#511=FILL_AREA_STYLE_COLOUR('',#521);
#512=COLOUR_RGB('',0.509803950786591,0.509803950786591,0.588235318660736);
#513=COLOUR_RGB('',0.509803950786591,0.509803950786591,0.588235318660736);
#514=COLOUR_RGB('',0.509803950786591,0.509803950786591,0.588235318660736);
#515=COLOUR_RGB('',0.509803950786591,0.509803950786591,0.588235318660736);
#516=COLOUR_RGB('',0.509803950786591,0.509803950786591,0.588235318660736);
#517=COLOUR_RGB('',0.509803950786591,0.509803950786591,0.588235318660736);
#518=COLOUR_RGB('',0.509803950786591,0.509803950786591,0.588235318660736);
#519=COLOUR_RGB('',0.509803950786591,0.509803950786591,0.588235318660736);
#520=COLOUR_RGB('',0.509803950786591,0.509803950786591,0.588235318660736);
#521=COLOUR_RGB('',0.509803950786591,0.509803950786591,0.588235318660736);
ENDSEC;
END-ISO-10303-21;
