ISO-10303-21;
HEADER;
FILE_DESCRIPTION(('STEP AP214'),'1');
FILE_NAME(' ','  ',('TraceParts'),('TraceParts S.A.'),'XStep 1.0',' ',' ');
FILE_SCHEMA(('automotive_design'));
ENDSEC;
DATA;
#1=MECHANICAL_DESIGN_GEOMETRIC_PRESENTATION_REPRESENTATION(' ',(#10,#11,#12,#13,#14,#15,#16,#17,#18,#19,#20,#21,#22,#23,#24,#25,#26,#27,#28,#29,#30,#31,#32,#33,#34,#35,#36,#37,#38,#39,#40,#41,#42,#43,#44,#45,#46,#47,#48,#49),#6);
#2=PRODUCT_DEFINITION_CONTEXT('',#50,'design');
#3=APPLICATION_PROTOCOL_DEFINITION('INTERNATIONAL STANDARD','automotive_design',1994,#50);
#4=PRODUCT_CATEGORY_RELATIONSHIP('NONE','NONE',#51,#52);
#5=SHAPE_DEFINITION_REPRESENTATION(#53,#54);
#6= (GEOMETRIC_REPRESENTATION_CONTEXT(3)GLOBAL_UNCERTAINTY_ASSIGNED_CONTEXT((#57))GLOBAL_UNIT_ASSIGNED_CONTEXT((#59,#60,#61))REPRESENTATION_CONTEXT('NONE','WORKSPACE'));
#10=STYLED_ITEM('',(#63),#64);
#11=STYLED_ITEM('',(#65),#66);
#12=STYLED_ITEM('',(#67),#68);
#13=STYLED_ITEM('',(#69),#70);
#14=STYLED_ITEM('',(#71),#72);
#15=STYLED_ITEM('',(#73),#74);
#16=STYLED_ITEM('',(#75),#76);
#17=STYLED_ITEM('',(#77),#78);
#18=STYLED_ITEM('',(#79),#80);
#19=STYLED_ITEM('',(#81),#82);
#20=STYLED_ITEM('',(#83),#84);
#21=STYLED_ITEM('',(#85),#86);
#22=STYLED_ITEM('',(#87),#88);
#23=STYLED_ITEM('',(#89),#90);
#24=STYLED_ITEM('',(#91),#92);
#25=STYLED_ITEM('',(#93),#94);
#26=STYLED_ITEM('',(#95),#96);
#27=STYLED_ITEM('',(#97),#98);
#28=STYLED_ITEM('',(#99),#100);
#29=STYLED_ITEM('',(#101),#102);
#30=STYLED_ITEM('',(#103),#104);
#31=STYLED_ITEM('',(#105),#106);
#32=STYLED_ITEM('',(#107),#108);
#33=STYLED_ITEM('',(#109),#110);
#34=STYLED_ITEM('',(#111),#112);
#35=STYLED_ITEM('',(#113),#114);
#36=STYLED_ITEM('',(#115),#116);
#37=STYLED_ITEM('',(#117),#118);
#38=STYLED_ITEM('',(#119),#120);
#39=STYLED_ITEM('',(#121),#122);
#40=STYLED_ITEM('',(#123),#124);
#41=STYLED_ITEM('',(#125),#126);
#42=STYLED_ITEM('',(#127),#128);
#43=STYLED_ITEM('',(#129),#130);
#44=STYLED_ITEM('',(#131),#132);
#45=STYLED_ITEM('',(#133),#134);
#46=STYLED_ITEM('',(#135),#136);
#47=STYLED_ITEM('',(#137),#138);
#48=STYLED_ITEM('',(#139),#140);
#49=STYLED_ITEM('',(#141),#142);
#50=APPLICATION_CONTEXT(' ');
#51=PRODUCT_CATEGORY('part','NONE');
#52=PRODUCT_RELATED_PRODUCT_CATEGORY('detail',' ',(#143));
#53=PRODUCT_DEFINITION_SHAPE('NONE','NONE',#144);
#54=ADVANCED_BREP_SHAPE_REPRESENTATION('1',(#138,#145),#6);
#57=UNCERTAINTY_MEASURE_WITH_UNIT(LENGTH_MEASURE(1.0E-006),#59,'','');
#59= (CONVERSION_BASED_UNIT('MILLIMETRE',#148)LENGTH_UNIT()NAMED_UNIT(#151));
#60= (NAMED_UNIT(#153)PLANE_ANGLE_UNIT()SI_UNIT($,.RADIAN.));
#61= (NAMED_UNIT(#153)SOLID_ANGLE_UNIT()SI_UNIT($,.STERADIAN.));
#63=PRESENTATION_STYLE_ASSIGNMENT((#159));
#64=EDGE_CURVE('',#142,#92,#160,.T.);
#65=PRESENTATION_STYLE_ASSIGNMENT((#161));
#66=EDGE_CURVE('',#112,#80,#162,.T.);
#67=PRESENTATION_STYLE_ASSIGNMENT((#163));
#68=ADVANCED_FACE('',(#164),#165,.T.);
#69=PRESENTATION_STYLE_ASSIGNMENT((#166));
#70=VERTEX_POINT('',#167);
#71=PRESENTATION_STYLE_ASSIGNMENT((#168));
#72=EDGE_CURVE('',#70,#94,#169,.T.);
#73=PRESENTATION_STYLE_ASSIGNMENT((#170));
#74=ADVANCED_FACE('',(#171),#172,.T.);
#75=PRESENTATION_STYLE_ASSIGNMENT((#173));
#76=EDGE_CURVE('',#140,#86,#174,.T.);
#77=PRESENTATION_STYLE_ASSIGNMENT((#175));
#78=EDGE_CURVE('',#100,#116,#176,.T.);
#79=PRESENTATION_STYLE_ASSIGNMENT((#177));
#80=VERTEX_POINT('',#178);
#81=PRESENTATION_STYLE_ASSIGNMENT((#179));
#82=EDGE_CURVE('',#80,#112,#180,.T.);
#83=PRESENTATION_STYLE_ASSIGNMENT((#181));
#84=EDGE_CURVE('',#116,#94,#182,.T.);
#85=PRESENTATION_STYLE_ASSIGNMENT((#183));
#86=VERTEX_POINT('',#184);
#87=PRESENTATION_STYLE_ASSIGNMENT((#185));
#88=EDGE_CURVE('',#70,#100,#186,.T.);
#89=PRESENTATION_STYLE_ASSIGNMENT((#187));
#90=ADVANCED_FACE('',(#188,#189),#190,.T.);
#91=PRESENTATION_STYLE_ASSIGNMENT((#191));
#92=VERTEX_POINT('',#192);
#93=PRESENTATION_STYLE_ASSIGNMENT((#193));
#94=VERTEX_POINT('',#194);
#95=PRESENTATION_STYLE_ASSIGNMENT((#195));
#96=EDGE_CURVE('',#94,#70,#196,.T.);
#97=PRESENTATION_STYLE_ASSIGNMENT((#197));
#98=EDGE_CURVE('',#112,#142,#198,.T.);
#99=PRESENTATION_STYLE_ASSIGNMENT((#199));
#100=VERTEX_POINT('',#200);
#101=PRESENTATION_STYLE_ASSIGNMENT((#201));
#102=EDGE_CURVE('',#92,#140,#202,.T.);
#103=PRESENTATION_STYLE_ASSIGNMENT((#203));
#104=EDGE_CURVE('',#132,#116,#204,.T.);
#105=PRESENTATION_STYLE_ASSIGNMENT((#205));
#106=ADVANCED_FACE('',(#206),#207,.F.);
#107=PRESENTATION_STYLE_ASSIGNMENT((#208));
#108=EDGE_CURVE('',#116,#100,#209,.T.);
#109=PRESENTATION_STYLE_ASSIGNMENT((#210));
#110=EDGE_CURVE('',#86,#140,#211,.T.);
#111=PRESENTATION_STYLE_ASSIGNMENT((#212));
#112=VERTEX_POINT('',#213);
#113=PRESENTATION_STYLE_ASSIGNMENT((#214));
#114=EDGE_CURVE('',#92,#70,#215,.T.);
#115=PRESENTATION_STYLE_ASSIGNMENT((#216));
#116=VERTEX_POINT('',#217);
#117=PRESENTATION_STYLE_ASSIGNMENT((#218));
#118=EDGE_CURVE('',#92,#142,#219,.T.);
#119=PRESENTATION_STYLE_ASSIGNMENT((#220));
#120=ADVANCED_FACE('',(#221),#222,.F.);
#121=PRESENTATION_STYLE_ASSIGNMENT((#223));
#122=EDGE_CURVE('',#100,#132,#224,.T.);
#123=PRESENTATION_STYLE_ASSIGNMENT((#225));
#124=ADVANCED_FACE('',(#226),#227,.T.);
#125=PRESENTATION_STYLE_ASSIGNMENT((#228));
#126=ADVANCED_FACE('',(#229),#230,.T.);
#127=PRESENTATION_STYLE_ASSIGNMENT((#231));
#128=ADVANCED_FACE('',(#232),#233,.T.);
#129=PRESENTATION_STYLE_ASSIGNMENT((#234));
#130=EDGE_CURVE('',#94,#80,#235,.T.);
#131=PRESENTATION_STYLE_ASSIGNMENT((#236));
#132=VERTEX_POINT('',#237);
#133=PRESENTATION_STYLE_ASSIGNMENT((#238));
#134=EDGE_CURVE('',#86,#142,#239,.T.);
#135=PRESENTATION_STYLE_ASSIGNMENT((#240));
#136=ADVANCED_FACE('',(#241),#242,.T.);
#137=PRESENTATION_STYLE_ASSIGNMENT((#243));
#138=MANIFOLD_SOLID_BREP('1',#244);
#139=PRESENTATION_STYLE_ASSIGNMENT((#245));
#140=VERTEX_POINT('',#246);
#141=PRESENTATION_STYLE_ASSIGNMENT((#247));
#142=VERTEX_POINT('',#248);
#143=PRODUCT('1','1','PART-1-DESC',(#249));
#144=PRODUCT_DEFINITION('NONE','NONE',#250,#2);
#145=AXIS2_PLACEMENT_3D('',#251,#252,#253);
#148=LENGTH_MEASURE_WITH_UNIT(LENGTH_MEASURE(1.0),#254);
#151=DIMENSIONAL_EXPONENTS(1.0,0.0,0.0,0.0,0.0,0.0,0.0);
#153=DIMENSIONAL_EXPONENTS(0.0,0.0,0.0,0.0,0.0,0.0,0.0);
#159=CURVE_STYLE('',#255,POSITIVE_LENGTH_MEASURE(1.0E-006),#256);
#160=CIRCLE('',#257,4.0);
#161=CURVE_STYLE('',#258,POSITIVE_LENGTH_MEASURE(1.0E-006),#259);
#162=CIRCLE('',#260,6.2449979983984);
#163=SURFACE_STYLE_USAGE(.BOTH.,#261);
#164=FACE_OUTER_BOUND('',#262,.T.);
#165=SPHERICAL_SURFACE('',#263,8.0);
#166=POINT_STYLE(' ',#264,POSITIVE_LENGTH_MEASURE(1.0E-006),#265);
#167=CARTESIAN_POINT('',(5.14230087749243,6.72782635619478E-014,11.1283555449517));
#168=CURVE_STYLE('',#266,POSITIVE_LENGTH_MEASURE(1.0E-006),#267);
#169=CIRCLE('',#268,3.99999999999995);
#170=SURFACE_STYLE_USAGE(.BOTH.,#269);
#171=FACE_OUTER_BOUND('',#270,.T.);
#172=SPHERICAL_SURFACE('',#271,5.00000000000001);
#173=CURVE_STYLE('',#272,POSITIVE_LENGTH_MEASURE(1.0E-006),#273);
#174=CIRCLE('',#274,4.0);
#175=CURVE_STYLE('',#275,POSITIVE_LENGTH_MEASURE(1.0E-006),#276);
#176=CIRCLE('',#277,4.99903996675282);
#177=POINT_STYLE(' ',#278,POSITIVE_LENGTH_MEASURE(1.0E-006),#279);
#178=CARTESIAN_POINT('',(6.24499799839845,4.10149959203056E-015,-5.6843418860808E-014));
#179=CURVE_STYLE('',#280,POSITIVE_LENGTH_MEASURE(1.0E-006),#281);
#180=CIRCLE('',#282,6.2449979983984);
#181=CURVE_STYLE('',#283,POSITIVE_LENGTH_MEASURE(1.0E-006),#284);
#182=LINE('',#285,#286);
#183=POINT_STYLE(' ',#287,POSITIVE_LENGTH_MEASURE(1.0E-006),#288);
#184=CARTESIAN_POINT('',(-3.99999999999995,3.55391597388951E-015,-5.6843418860808E-014));
#185=CURVE_STYLE('',#289,POSITIVE_LENGTH_MEASURE(1.0E-006),#290);
#186=LINE('',#291,#292);
#187=SURFACE_STYLE_USAGE(.BOTH.,#293);
#188=FACE_BOUND('',#294,.T.);
#189=FACE_OUTER_BOUND('',#295,.T.);
#190=PLANE('',#296);
#191=POINT_STYLE(' ',#297,POSITIVE_LENGTH_MEASURE(1.0E-006),#298);
#192=CARTESIAN_POINT('',(4.00000000000006,4.55694338398884E-015,11.9282032302754));
#193=POINT_STYLE(' ',#299,POSITIVE_LENGTH_MEASURE(1.0E-006),#300);
#194=CARTESIAN_POINT('',(7.87846202409773,1.64333931721326E-012,3.61081457866455));
#195=CURVE_STYLE('',#301,POSITIVE_LENGTH_MEASURE(1.0E-006),#302);
#196=CIRCLE('',#303,3.99999999999995);
#197=CURVE_STYLE('',#304,POSITIVE_LENGTH_MEASURE(1.0E-006),#305);
#198=CIRCLE('',#306,8.0);
#199=POINT_STYLE(' ',#307,POSITIVE_LENGTH_MEASURE(1.0E-006),#308);
#200=CARTESIAN_POINT('',(52.7003317676485,7.05988301044494E-014,29.5012193157145));
#201=CURVE_STYLE('',#309,POSITIVE_LENGTH_MEASURE(1.0E-006),#310);
#202=LINE('',#311,#312);
#203=CURVE_STYLE('',#313,POSITIVE_LENGTH_MEASURE(1.0E-006),#314);
#204=CIRCLE('',#315,5.00000000000001);
#205=SURFACE_STYLE_USAGE(.BOTH.,#316);
#206=FACE_OUTER_BOUND('',#317,.T.);
#207=CYLINDRICAL_SURFACE('',#318,4.0);
#208=CURVE_STYLE('',#319,POSITIVE_LENGTH_MEASURE(1.0E-006),#320);
#209=CIRCLE('',#321,4.99903996675282);
#210=CURVE_STYLE('',#322,POSITIVE_LENGTH_MEASURE(1.0E-006),#323);
#211=CIRCLE('',#324,4.0);
#212=POINT_STYLE(' ',#325,POSITIVE_LENGTH_MEASURE(1.0E-006),#326);
#213=CARTESIAN_POINT('',(-6.24499799839834,2.11335191195215E-015,-5.6843418860808E-014));
#214=CURVE_STYLE('',#327,POSITIVE_LENGTH_MEASURE(1.0E-006),#328);
#215=CIRCLE('',#329,8.0);
#216=POINT_STYLE(' ',#330,POSITIVE_LENGTH_MEASURE(1.0E-006),#331);
#217=CARTESIAN_POINT('',(56.1198764994876,2.04331207041403E-012,20.1060973801716));
#218=CURVE_STYLE('',#332,POSITIVE_LENGTH_MEASURE(1.0E-006),#333);
#219=CIRCLE('',#334,4.0);
#220=SURFACE_STYLE_USAGE(.BOTH.,#335);
#221=FACE_OUTER_BOUND('',#336,.T.);
#222=CYLINDRICAL_SURFACE('',#337,4.0);
#223=CURVE_STYLE('',#338,POSITIVE_LENGTH_MEASURE(1.0E-006),#339);
#224=CIRCLE('',#340,5.00000000000001);
#225=SURFACE_STYLE_USAGE(.BOTH.,#341);
#226=FACE_OUTER_BOUND('',#342,.T.);
#227=SPHERICAL_SURFACE('',#343,5.00000000000001);
#228=SURFACE_STYLE_USAGE(.BOTH.,#344);
#229=FACE_OUTER_BOUND('',#345,.T.);
#230=CONICAL_SURFACE('',#346,4.49951998337641,0.0195965708314896);
#231=SURFACE_STYLE_USAGE(.BOTH.,#347);
#232=FACE_OUTER_BOUND('',#348,.T.);
#233=SPHERICAL_SURFACE('',#349,8.0);
#234=CURVE_STYLE('',#350,POSITIVE_LENGTH_MEASURE(1.0E-006),#351);
#235=CIRCLE('',#352,8.0);
#236=POINT_STYLE(' ',#353,POSITIVE_LENGTH_MEASURE(1.0E-006),#354);
#237=CARTESIAN_POINT('',(59.2006351095124,7.00131220807188E-014,26.547269029517));
#238=CURVE_STYLE('',#355,POSITIVE_LENGTH_MEASURE(1.0E-006),#356);
#239=LINE('',#357,#358);
#240=SURFACE_STYLE_USAGE(.BOTH.,#359);
#241=FACE_OUTER_BOUND('',#360,.T.);
#242=CONICAL_SURFACE('',#361,4.49951998337641,0.0195965708314896);
#243=SURFACE_STYLE_USAGE(.BOTH.,#362);
#244=CLOSED_SHELL('',(#128,#120,#124,#126,#136,#74,#90,#106,#68));
#245=POINT_STYLE(' ',#363,POSITIVE_LENGTH_MEASURE(1.0E-006),#364);
#246=CARTESIAN_POINT('',(4.00000000000006,3.82657571071484E-015,-5.6843418860808E-014));
#247=POINT_STYLE(' ',#365,POSITIVE_LENGTH_MEASURE(1.0E-006),#366);
#248=CARTESIAN_POINT('',(-3.99999999999995,3.55391597388951E-015,11.9282032302754));
#249=PRODUCT_CONTEXT('',#50,'mechanical');
#250=PRODUCT_DEFINITION_FORMATION_WITH_SPECIFIED_SOURCE(' ','NONE',#143,.NOT_KNOWN.);
#251=CARTESIAN_POINT('',(0.0,0.0,0.0));
#252=DIRECTION('',(0.0,0.0,1.0));
#253=DIRECTION('',(1.0,0.0,0.0));
#254= (NAMED_UNIT(#151)LENGTH_UNIT()SI_UNIT(.MILLI.,.METRE.));
#255=DRAUGHTING_PRE_DEFINED_CURVE_FONT('continuous');
#256=COLOUR_RGB('',0.509803950786591,0.509803950786591,0.588235318660736);
#257=AXIS2_PLACEMENT_3D('',#368,#369,#370);
#258=DRAUGHTING_PRE_DEFINED_CURVE_FONT('continuous');
#259=COLOUR_RGB('',0.509803950786591,0.509803950786591,0.588235318660736);
#260=AXIS2_PLACEMENT_3D('',#371,#372,#373);
#261=SURFACE_SIDE_STYLE('',(#374));
#262=EDGE_LOOP('',(#375,#376,#377,#378,#379,#380));
#263=AXIS2_PLACEMENT_3D('',#381,#382,#383);
#264=PRE_DEFINED_MARKER('');
#265=COLOUR_RGB('',0.509803950786591,0.509803950786591,0.588235318660736);
#266=DRAUGHTING_PRE_DEFINED_CURVE_FONT('continuous');
#267=COLOUR_RGB('',0.509803950786591,0.509803950786591,0.588235318660736);
#268=AXIS2_PLACEMENT_3D('',#384,#385,#386);
#269=SURFACE_SIDE_STYLE('',(#387));
#270=EDGE_LOOP('',(#388,#389,#390));
#271=AXIS2_PLACEMENT_3D('',#391,#392,#393);
#272=DRAUGHTING_PRE_DEFINED_CURVE_FONT('continuous');
#273=COLOUR_RGB('',0.509803950786591,0.509803950786591,0.588235318660736);
#274=AXIS2_PLACEMENT_3D('',#394,#395,#396);
#275=DRAUGHTING_PRE_DEFINED_CURVE_FONT('continuous');
#276=COLOUR_RGB('',0.509803950786591,0.509803950786591,0.588235318660736);
#277=AXIS2_PLACEMENT_3D('',#397,#398,#399);
#278=PRE_DEFINED_MARKER('');
#279=COLOUR_RGB('',0.509803950786591,0.509803950786591,0.588235318660736);
#280=DRAUGHTING_PRE_DEFINED_CURVE_FONT('continuous');
#281=COLOUR_RGB('',0.509803950786591,0.509803950786591,0.588235318660736);
#282=AXIS2_PLACEMENT_3D('',#400,#401,#402);
#283=DRAUGHTING_PRE_DEFINED_CURVE_FONT('continuous');
#284=COLOUR_RGB('',0.509803950786591,0.509803950786591,0.588235318660736);
#285=CARTESIAN_POINT('',(31.9991692617927,1.84332569381367E-012,11.858455979418));
#286=VECTOR('',#403,1.0);
#287=PRE_DEFINED_MARKER('');
#288=COLOUR_RGB('',0.509803950786591,0.509803950786591,0.588235318660736);
#289=DRAUGHTING_PRE_DEFINED_CURVE_FONT('continuous');
#290=COLOUR_RGB('',0.509803950786591,0.509803950786591,0.588235318660736);
#291=CARTESIAN_POINT('',(28.9213163225705,-1.70309883678707E-012,20.3147874303331));
#292=VECTOR('',#404,1.0);
#293=SURFACE_SIDE_STYLE('',(#405));
#294=EDGE_LOOP('',(#406,#407));
#295=EDGE_LOOP('',(#408,#409));
#296=AXIS2_PLACEMENT_3D('',#410,#411,#412);
#297=PRE_DEFINED_MARKER('');
#298=COLOUR_RGB('',0.509803950786591,0.509803950786591,0.588235318660736);
#299=PRE_DEFINED_MARKER('');
#300=COLOUR_RGB('',0.509803950786591,0.509803950786591,0.588235318660736);
#301=DRAUGHTING_PRE_DEFINED_CURVE_FONT('continuous');
#302=COLOUR_RGB('',0.509803950786591,0.509803950786591,0.588235318660736);
#303=AXIS2_PLACEMENT_3D('',#413,#414,#415);
#304=DRAUGHTING_PRE_DEFINED_CURVE_FONT('continuous');
#305=COLOUR_RGB('',0.509803950786591,0.509803950786591,0.588235318660736);
#306=AXIS2_PLACEMENT_3D('',#416,#417,#418);
#307=PRE_DEFINED_MARKER('');
#308=COLOUR_RGB('',0.509803950786591,0.509803950786591,0.588235318660736);
#309=DRAUGHTING_PRE_DEFINED_CURVE_FONT('continuous');
#310=COLOUR_RGB('',0.509803950786591,0.509803950786591,0.588235318660736);
#311=CARTESIAN_POINT('',(4.00000000000006,4.58028571103027E-015,5.96410161513769));
#312=VECTOR('',#419,1.0);
#313=DRAUGHTING_PRE_DEFINED_CURVE_FONT('continuous');
#314=COLOUR_RGB('',0.509803950786591,0.509803950786591,0.588235318660736);
#315=AXIS2_PLACEMENT_3D('',#420,#421,#422);
#316=SURFACE_SIDE_STYLE('',(#423));
#317=EDGE_LOOP('',(#424,#425,#426,#427));
#318=AXIS2_PLACEMENT_3D('',#428,#429,#430);
#319=DRAUGHTING_PRE_DEFINED_CURVE_FONT('continuous');
#320=COLOUR_RGB('',0.509803950786591,0.509803950786591,0.588235318660736);
#321=AXIS2_PLACEMENT_3D('',#431,#432,#433);
#322=DRAUGHTING_PRE_DEFINED_CURVE_FONT('continuous');
#323=COLOUR_RGB('',0.509803950786591,0.509803950786591,0.588235318660736);
#324=AXIS2_PLACEMENT_3D('',#434,#435,#436);
#325=PRE_DEFINED_MARKER('');
#326=COLOUR_RGB('',0.509803950786591,0.509803950786591,0.588235318660736);
#327=DRAUGHTING_PRE_DEFINED_CURVE_FONT('continuous');
#328=COLOUR_RGB('',0.509803950786591,0.509803950786591,0.588235318660736);
#329=AXIS2_PLACEMENT_3D('',#437,#438,#439);
#330=PRE_DEFINED_MARKER('');
#331=COLOUR_RGB('',0.509803950786591,0.509803950786591,0.588235318660736);
#332=DRAUGHTING_PRE_DEFINED_CURVE_FONT('continuous');
#333=COLOUR_RGB('',0.509803950786591,0.509803950786591,0.588235318660736);
#334=AXIS2_PLACEMENT_3D('',#440,#441,#442);
#335=SURFACE_SIDE_STYLE('',(#443));
#336=EDGE_LOOP('',(#444,#445,#446,#447));
#337=AXIS2_PLACEMENT_3D('',#448,#449,#450);
#338=DRAUGHTING_PRE_DEFINED_CURVE_FONT('continuous');
#339=COLOUR_RGB('',0.509803950786591,0.509803950786591,0.588235318660736);
#340=AXIS2_PLACEMENT_3D('',#451,#452,#453);
#341=SURFACE_SIDE_STYLE('',(#454));
#342=EDGE_LOOP('',(#455,#456,#457));
#343=AXIS2_PLACEMENT_3D('',#458,#459,#460);
#344=SURFACE_SIDE_STYLE('',(#461));
#345=EDGE_LOOP('',(#462,#463,#464,#465));
#346=AXIS2_PLACEMENT_3D('',#466,#467,#468);
#347=SURFACE_SIDE_STYLE('',(#469));
#348=EDGE_LOOP('',(#470,#471,#472,#473,#474,#475));
#349=AXIS2_PLACEMENT_3D('',#476,#477,#478);
#350=DRAUGHTING_PRE_DEFINED_CURVE_FONT('continuous');
#351=COLOUR_RGB('',0.509803950786591,0.509803950786591,0.588235318660736);
#352=AXIS2_PLACEMENT_3D('',#479,#480,#481);
#353=PRE_DEFINED_MARKER('');
#354=COLOUR_RGB('',0.509803950786591,0.509803950786591,0.588235318660736);
#355=DRAUGHTING_PRE_DEFINED_CURVE_FONT('continuous');
#356=COLOUR_RGB('',0.509803950786591,0.509803950786591,0.588235318660736);
#357=CARTESIAN_POINT('',(-3.99999999999995,3.55391597388951E-015,5.96410161513769));
#358=VECTOR('',#482,1.0);
#359=SURFACE_SIDE_STYLE('',(#483));
#360=EDGE_LOOP('',(#484,#485,#486,#487));
#361=AXIS2_PLACEMENT_3D('',#488,#489,#490);
#362=SURFACE_SIDE_STYLE('',(#491));
#363=PRE_DEFINED_MARKER('');
#364=COLOUR_RGB('',0.509803950786591,0.509803950786591,0.588235318660736);
#365=PRE_DEFINED_MARKER('');
#366=COLOUR_RGB('',0.509803950786591,0.509803950786591,0.588235318660736);
#368=CARTESIAN_POINT('',(5.6843418860808E-014,4.06710084245989E-015,11.9282032302754));
#369=DIRECTION('',(0.0,0.0,-1.0));
#370=DIRECTION('',(1.0,5.83558176035804E-018,0.0));
#371=CARTESIAN_POINT('',(5.6843418860808E-014,4.06710084245989E-015,-5.6843418860808E-014));
#372=DIRECTION('',(0.0,0.0,-1.0));
#373=DIRECTION('',(1.0,5.83558176035804E-018,0.0));
#374=SURFACE_STYLE_FILL_AREA(#492);
#375=ORIENTED_EDGE('',*,*,#114,.T.);
#376=ORIENTED_EDGE('',*,*,#72,.T.);
#377=ORIENTED_EDGE('',*,*,#130,.T.);
#378=ORIENTED_EDGE('',*,*,#66,.F.);
#379=ORIENTED_EDGE('',*,*,#98,.T.);
#380=ORIENTED_EDGE('',*,*,#64,.T.);
#381=CARTESIAN_POINT('',(5.95079541199084E-014,3.64288475764149E-015,4.99999999999994));
#382=DIRECTION('',(0.0,0.0,-1.0));
#383=DIRECTION('',(1.0,1.22460635382238E-016,0.0));
#384=CARTESIAN_POINT('',(6.51038145079507,4.49398060340341E-015,7.36958506180813));
#385=DIRECTION('',(-0.939692620785909,-1.22845103914205E-016,-0.342020143325668));
#386=DIRECTION('',(0.342020143325668,0.0,-0.939692620785909));
#387=SURFACE_STYLE_FILL_AREA(#493);
#388=ORIENTED_EDGE('',*,*,#122,.F.);
#389=ORIENTED_EDGE('',*,*,#78,.T.);
#390=ORIENTED_EDGE('',*,*,#104,.F.);
#391=CARTESIAN_POINT('',(54.5021720055829,6.97050481496034E-014,24.8371683128887));
#392=DIRECTION('',(0.939692620785909,1.22845103914205E-016,0.342020143325668));
#393=DIRECTION('',(-0.342020143325668,1.79998313084964E-016,0.939692620785909));
#394=CARTESIAN_POINT('',(5.6843418860808E-014,4.06710084245989E-015,-5.6843418860808E-014));
#395=DIRECTION('',(0.0,0.0,-1.0));
#396=DIRECTION('',(1.0,5.83558176035806E-018,0.0));
#397=CARTESIAN_POINT('',(54.4101041335681,7.32443706321737E-014,24.803658347943));
#398=DIRECTION('',(0.939692620785909,1.22845103914223E-016,0.342020143325668));
#399=DIRECTION('',(-0.342020143325668,-3.94211668340103E-013,0.939692620785909));
#400=CARTESIAN_POINT('',(5.6843418860808E-014,4.06710084245989E-015,-5.6843418860808E-014));
#401=DIRECTION('',(0.0,0.0,-1.0));
#402=DIRECTION('',(1.0,5.83558176035804E-018,0.0));
#403=DIRECTION('',(-0.946214186543416,-7.8451243070913E-015,-0.323540898780944));
#404=DIRECTION('',(0.932810200565166,-7.59948127341645E-015,0.360368047586872));
#405=SURFACE_STYLE_FILL_AREA(#494);
#406=ORIENTED_EDGE('',*,*,#76,.F.);
#407=ORIENTED_EDGE('',*,*,#110,.F.);
#408=ORIENTED_EDGE('',*,*,#82,.T.);
#409=ORIENTED_EDGE('',*,*,#66,.T.);
#410=CARTESIAN_POINT('',(5.12249899919926,3.9640376513727E-015,-5.6843418860808E-014));
#411=DIRECTION('',(0.0,0.0,-1.0));
#412=DIRECTION('',(1.0,1.22460635382238E-016,0.0));
#413=CARTESIAN_POINT('',(6.51038145079507,4.49398060340341E-015,7.36958506180813));
#414=DIRECTION('',(-0.939692620785909,-1.22845103914205E-016,-0.342020143325668));
#415=DIRECTION('',(0.342020143325668,0.0,-0.939692620785909));
#416=CARTESIAN_POINT('',(5.95079541199084E-014,3.64288475764149E-015,4.99999999999994));
#417=DIRECTION('',(-2.44921270764475E-016,1.0,0.0));
#418=DIRECTION('',(0.0,0.0,-1.0));
#419=DIRECTION('',(-0.0,-0.0,-1.0));
#420=CARTESIAN_POINT('',(54.5021720055829,6.97050481496034E-014,24.8371683128887));
#421=DIRECTION('',(-1.1989584742973E-017,1.0,-3.26233942012887E-016));
#422=DIRECTION('',(0.0,-3.26233942012887E-016,-1.0));
#423=SURFACE_STYLE_FILL_AREA(#495);
#424=ORIENTED_EDGE('',*,*,#102,.T.);
#425=ORIENTED_EDGE('',*,*,#76,.T.);
#426=ORIENTED_EDGE('',*,*,#134,.T.);
#427=ORIENTED_EDGE('',*,*,#118,.F.);
#428=CARTESIAN_POINT('',(5.6843418860808E-014,4.06710084245989E-015,5.96410161513769));
#429=DIRECTION('',(-0.0,-0.0,1.0));
#430=DIRECTION('',(1.0,5.83558176035804E-018,0.0));
#431=CARTESIAN_POINT('',(54.4101041335681,7.32443706321737E-014,24.803658347943));
#432=DIRECTION('',(0.939692620785909,1.22845103914223E-016,0.342020143325668));
#433=DIRECTION('',(-0.342020143325668,-3.94211668340103E-013,0.939692620785909));
#434=CARTESIAN_POINT('',(5.6843418860808E-014,4.06710084245989E-015,-5.6843418860808E-014));
#435=DIRECTION('',(0.0,0.0,-1.0));
#436=DIRECTION('',(1.0,5.83558176035806E-018,0.0));
#437=CARTESIAN_POINT('',(5.95079541199084E-014,3.64288475764149E-015,4.99999999999994));
#438=DIRECTION('',(-2.44921270764475E-016,1.0,0.0));
#439=DIRECTION('',(0.0,0.0,-1.0));
#440=CARTESIAN_POINT('',(5.6843418860808E-014,4.06710084245989E-015,11.9282032302754));
#441=DIRECTION('',(0.0,0.0,-1.0));
#442=DIRECTION('',(1.0,5.83558176035804E-018,0.0));
#443=SURFACE_STYLE_FILL_AREA(#496);
#444=ORIENTED_EDGE('',*,*,#102,.F.);
#445=ORIENTED_EDGE('',*,*,#64,.F.);
#446=ORIENTED_EDGE('',*,*,#134,.F.);
#447=ORIENTED_EDGE('',*,*,#110,.T.);
#448=CARTESIAN_POINT('',(5.6843418860808E-014,4.06710084245989E-015,5.96410161513769));
#449=DIRECTION('',(-0.0,-0.0,1.0));
#450=DIRECTION('',(1.0,5.83558176035804E-018,0.0));
#451=CARTESIAN_POINT('',(54.5021720055829,6.97050481496034E-014,24.8371683128887));
#452=DIRECTION('',(-1.1989584742973E-017,1.0,-3.26233942012887E-016));
#453=DIRECTION('',(0.0,-3.26233942012887E-016,-1.0));
#454=SURFACE_STYLE_FILL_AREA(#497);
#455=ORIENTED_EDGE('',*,*,#122,.T.);
#456=ORIENTED_EDGE('',*,*,#104,.T.);
#457=ORIENTED_EDGE('',*,*,#108,.T.);
#458=CARTESIAN_POINT('',(54.5021720055829,6.97050481496034E-014,24.8371683128887));
#459=DIRECTION('',(0.939692620785909,1.22845103914205E-016,0.342020143325668));
#460=DIRECTION('',(-0.342020143325668,1.79998313084964E-016,0.939692620785909));
#461=SURFACE_STYLE_FILL_AREA(#498);
#462=ORIENTED_EDGE('',*,*,#88,.F.);
#463=ORIENTED_EDGE('',*,*,#96,.F.);
#464=ORIENTED_EDGE('',*,*,#84,.F.);
#465=ORIENTED_EDGE('',*,*,#78,.F.);
#466=CARTESIAN_POINT('',(30.4602427921816,7.01134285133E-014,16.0866217048756));
#467=DIRECTION('',(0.939692620785909,1.22845103914221E-016,0.342020143325668));
#468=DIRECTION('',(-0.342020143325668,-3.94211668340103E-013,0.939692620785909));
#469=SURFACE_STYLE_FILL_AREA(#499);
#470=ORIENTED_EDGE('',*,*,#114,.F.);
#471=ORIENTED_EDGE('',*,*,#118,.T.);
#472=ORIENTED_EDGE('',*,*,#98,.F.);
#473=ORIENTED_EDGE('',*,*,#82,.F.);
#474=ORIENTED_EDGE('',*,*,#130,.F.);
#475=ORIENTED_EDGE('',*,*,#96,.T.);
#476=CARTESIAN_POINT('',(5.95079541199084E-014,3.64288475764149E-015,4.99999999999994));
#477=DIRECTION('',(0.0,0.0,-1.0));
#478=DIRECTION('',(1.0,1.22460635382238E-016,0.0));
#479=CARTESIAN_POINT('',(5.95079541199084E-014,3.64288475764149E-015,4.99999999999994));
#480=DIRECTION('',(-2.44921270764475E-016,1.0,0.0));
#481=DIRECTION('',(0.0,0.0,-1.0));
#482=DIRECTION('',(-0.0,-0.0,1.0));
#483=SURFACE_STYLE_FILL_AREA(#500);
#484=ORIENTED_EDGE('',*,*,#88,.T.);
#485=ORIENTED_EDGE('',*,*,#108,.F.);
#486=ORIENTED_EDGE('',*,*,#84,.T.);
#487=ORIENTED_EDGE('',*,*,#72,.F.);
#488=CARTESIAN_POINT('',(30.4602427921816,7.01134285133E-014,16.0866217048756));
#489=DIRECTION('',(0.939692620785909,1.22845103914221E-016,0.342020143325668));
#490=DIRECTION('',(-0.342020143325668,-3.94211668340103E-013,0.939692620785909));
#491=SURFACE_STYLE_FILL_AREA(#501);
#492=FILL_AREA_STYLE('',(#502));
#493=FILL_AREA_STYLE('',(#503));
#494=FILL_AREA_STYLE('',(#504));
#495=FILL_AREA_STYLE('',(#505));
#496=FILL_AREA_STYLE('',(#506));
#497=FILL_AREA_STYLE('',(#507));
#498=FILL_AREA_STYLE('',(#508));
#499=FILL_AREA_STYLE('',(#509));
#500=FILL_AREA_STYLE('',(#510));
#501=FILL_AREA_STYLE('',(#511));
#502=FILL_AREA_STYLE_COLOUR('',#512);
#503=FILL_AREA_STYLE_COLOUR('',#513);
#504=FILL_AREA_STYLE_COLOUR('',#514);
#505=FILL_AREA_STYLE_COLOUR('',#515);
#506=FILL_AREA_STYLE_COLOUR('',#516);
#507=FILL_AREA_STYLE_COLOUR('',#517);
#508=FILL_AREA_STYLE_COLOUR('',#518);
#509=FILL_AREA_STYLE_COLOUR('',#519);
#510=FILL_AREA_STYLE_COLOUR('',#520);
#511=FILL_AREA_STYLE_COLOUR('',#521);
#512=COLOUR_RGB('',0.509803950786591,0.509803950786591,0.588235318660736);
#513=COLOUR_RGB('',0.509803950786591,0.509803950786591,0.588235318660736);
#514=COLOUR_RGB('',0.509803950786591,0.509803950786591,0.588235318660736);
#515=COLOUR_RGB('',0.509803950786591,0.509803950786591,0.588235318660736);
#516=COLOUR_RGB('',0.509803950786591,0.509803950786591,0.588235318660736);
#517=COLOUR_RGB('',0.509803950786591,0.509803950786591,0.588235318660736);
#518=COLOUR_RGB('',0.509803950786591,0.509803950786591,0.588235318660736);
#519=COLOUR_RGB('',0.509803950786591,0.509803950786591,0.588235318660736);
#520=COLOUR_RGB('',0.509803950786591,0.509803950786591,0.588235318660736);
#521=COLOUR_RGB('',0.509803950786591,0.509803950786591,0.588235318660736);
ENDSEC;
END-ISO-10303-21;
