ISO-10303-21;
HEADER;
FILE_DESCRIPTION(('STEP AP214'),'1');
FILE_NAME(' ','  ',('TraceParts'),('TraceParts S.A.'),'XStep 1.0',' ',' ');
FILE_SCHEMA(('automotive_design'));
ENDSEC;
DATA;
#1=MECHANICAL_DESIGN_GEOMETRIC_PRESENTATION_REPRESENTATION(' ',(#10,#11,#12,#13,#14,#15,#16,#17,#18,#19,#20,#21,#22,#23,#24,#25,#26,#27,#28,#29,#30,#31,#32,#33,#34,#35,#36,#37,#38,#39,#40,#41,#42,#43,#44,#45,#46,#47,#48,#49),#6);
#2=PRODUCT_DEFINITION_CONTEXT('',#50,'design');
#3=APPLICATION_PROTOCOL_DEFINITION('INTERNATIONAL STANDARD','automotive_design',1994,#50);
#4=PRODUCT_CATEGORY_RELATIONSHIP('NONE','NONE',#51,#52);
#5=SHAPE_DEFINITION_REPRESENTATION(#53,#54);
#6= (GEOMETRIC_REPRESENTATION_CONTEXT(3)GLOBAL_UNCERTAINTY_ASSIGNED_CONTEXT((#57))GLOBAL_UNIT_ASSIGNED_CONTEXT((#59,#60,#61))REPRESENTATION_CONTEXT('NONE','WORKSPACE'));
#10=STYLED_ITEM('',(#63),#64);
#11=STYLED_ITEM('',(#65),#66);
#12=STYLED_ITEM('',(#67),#68);
#13=STYLED_ITEM('',(#69),#70);
#14=STYLED_ITEM('',(#71),#72);
#15=STYLED_ITEM('',(#73),#74);
#16=STYLED_ITEM('',(#75),#76);
#17=STYLED_ITEM('',(#77),#78);
#18=STYLED_ITEM('',(#79),#80);
#19=STYLED_ITEM('',(#81),#82);
#20=STYLED_ITEM('',(#83),#84);
#21=STYLED_ITEM('',(#85),#86);
#22=STYLED_ITEM('',(#87),#88);
#23=STYLED_ITEM('',(#89),#90);
#24=STYLED_ITEM('',(#91),#92);
#25=STYLED_ITEM('',(#93),#94);
#26=STYLED_ITEM('',(#95),#96);
#27=STYLED_ITEM('',(#97),#98);
#28=STYLED_ITEM('',(#99),#100);
#29=STYLED_ITEM('',(#101),#102);
#30=STYLED_ITEM('',(#103),#104);
#31=STYLED_ITEM('',(#105),#106);
#32=STYLED_ITEM('',(#107),#108);
#33=STYLED_ITEM('',(#109),#110);
#34=STYLED_ITEM('',(#111),#112);
#35=STYLED_ITEM('',(#113),#114);
#36=STYLED_ITEM('',(#115),#116);
#37=STYLED_ITEM('',(#117),#118);
#38=STYLED_ITEM('',(#119),#120);
#39=STYLED_ITEM('',(#121),#122);
#40=STYLED_ITEM('',(#123),#124);
#41=STYLED_ITEM('',(#125),#126);
#42=STYLED_ITEM('',(#127),#128);
#43=STYLED_ITEM('',(#129),#130);
#44=STYLED_ITEM('',(#131),#132);
#45=STYLED_ITEM('',(#133),#134);
#46=STYLED_ITEM('',(#135),#136);
#47=STYLED_ITEM('',(#137),#138);
#48=STYLED_ITEM('',(#139),#140);
#49=STYLED_ITEM('',(#141),#142);
#50=APPLICATION_CONTEXT(' ');
#51=PRODUCT_CATEGORY('part','NONE');
#52=PRODUCT_RELATED_PRODUCT_CATEGORY('detail',' ',(#143));
#53=PRODUCT_DEFINITION_SHAPE('NONE','NONE',#144);
#54=ADVANCED_BREP_SHAPE_REPRESENTATION('1',(#128,#145),#6);
#57=UNCERTAINTY_MEASURE_WITH_UNIT(LENGTH_MEASURE(1.0E-006),#59,'','');
#59= (CONVERSION_BASED_UNIT('MILLIMETRE',#148)LENGTH_UNIT()NAMED_UNIT(#151));
#60= (NAMED_UNIT(#153)PLANE_ANGLE_UNIT()SI_UNIT($,.RADIAN.));
#61= (NAMED_UNIT(#153)SOLID_ANGLE_UNIT()SI_UNIT($,.STERADIAN.));
#63=PRESENTATION_STYLE_ASSIGNMENT((#159));
#64=ADVANCED_FACE('',(#160),#161,.T.);
#65=PRESENTATION_STYLE_ASSIGNMENT((#162));
#66=EDGE_CURVE('',#78,#104,#163,.T.);
#67=PRESENTATION_STYLE_ASSIGNMENT((#164));
#68=EDGE_CURVE('',#78,#120,#165,.T.);
#69=PRESENTATION_STYLE_ASSIGNMENT((#166));
#70=EDGE_CURVE('',#88,#120,#167,.T.);
#71=PRESENTATION_STYLE_ASSIGNMENT((#168));
#72=VERTEX_POINT('',#169);
#73=PRESENTATION_STYLE_ASSIGNMENT((#170));
#74=EDGE_CURVE('',#96,#140,#171,.T.);
#75=PRESENTATION_STYLE_ASSIGNMENT((#172));
#76=ADVANCED_FACE('',(#173),#174,.F.);
#77=PRESENTATION_STYLE_ASSIGNMENT((#175));
#78=VERTEX_POINT('',#176);
#79=PRESENTATION_STYLE_ASSIGNMENT((#177));
#80=EDGE_CURVE('',#120,#88,#178,.T.);
#81=PRESENTATION_STYLE_ASSIGNMENT((#179));
#82=ADVANCED_FACE('',(#180),#181,.T.);
#83=PRESENTATION_STYLE_ASSIGNMENT((#182));
#84=EDGE_CURVE('',#110,#104,#183,.T.);
#85=PRESENTATION_STYLE_ASSIGNMENT((#184));
#86=EDGE_CURVE('',#104,#110,#185,.T.);
#87=PRESENTATION_STYLE_ASSIGNMENT((#186));
#88=VERTEX_POINT('',#187);
#89=PRESENTATION_STYLE_ASSIGNMENT((#188));
#90=EDGE_CURVE('',#100,#130,#189,.T.);
#91=PRESENTATION_STYLE_ASSIGNMENT((#190));
#92=EDGE_CURVE('',#88,#94,#191,.T.);
#93=PRESENTATION_STYLE_ASSIGNMENT((#192));
#94=VERTEX_POINT('',#193);
#95=PRESENTATION_STYLE_ASSIGNMENT((#194));
#96=VERTEX_POINT('',#195);
#97=PRESENTATION_STYLE_ASSIGNMENT((#196));
#98=EDGE_CURVE('',#140,#96,#197,.T.);
#99=PRESENTATION_STYLE_ASSIGNMENT((#198));
#100=VERTEX_POINT('',#199);
#101=PRESENTATION_STYLE_ASSIGNMENT((#200));
#102=EDGE_CURVE('',#130,#110,#201,.T.);
#103=PRESENTATION_STYLE_ASSIGNMENT((#202));
#104=VERTEX_POINT('',#203);
#105=PRESENTATION_STYLE_ASSIGNMENT((#204));
#106=EDGE_CURVE('',#96,#94,#205,.T.);
#107=PRESENTATION_STYLE_ASSIGNMENT((#206));
#108=ADVANCED_FACE('',(#207),#208,.T.);
#109=PRESENTATION_STYLE_ASSIGNMENT((#209));
#110=VERTEX_POINT('',#210);
#111=PRESENTATION_STYLE_ASSIGNMENT((#211));
#112=ADVANCED_FACE('',(#212),#213,.T.);
#113=PRESENTATION_STYLE_ASSIGNMENT((#214));
#114=EDGE_CURVE('',#110,#140,#215,.T.);
#115=PRESENTATION_STYLE_ASSIGNMENT((#216));
#116=EDGE_CURVE('',#130,#100,#217,.T.);
#117=PRESENTATION_STYLE_ASSIGNMENT((#218));
#118=EDGE_CURVE('',#78,#94,#219,.T.);
#119=PRESENTATION_STYLE_ASSIGNMENT((#220));
#120=VERTEX_POINT('',#221);
#121=PRESENTATION_STYLE_ASSIGNMENT((#222));
#122=EDGE_CURVE('',#104,#100,#223,.T.);
#123=PRESENTATION_STYLE_ASSIGNMENT((#224));
#124=EDGE_CURVE('',#72,#130,#225,.T.);
#125=PRESENTATION_STYLE_ASSIGNMENT((#226));
#126=ADVANCED_FACE('',(#227),#228,.F.);
#127=PRESENTATION_STYLE_ASSIGNMENT((#229));
#128=MANIFOLD_SOLID_BREP('1',#230);
#129=PRESENTATION_STYLE_ASSIGNMENT((#231));
#130=VERTEX_POINT('',#232);
#131=PRESENTATION_STYLE_ASSIGNMENT((#233));
#132=ADVANCED_FACE('',(#234),#235,.T.);
#133=PRESENTATION_STYLE_ASSIGNMENT((#236));
#134=ADVANCED_FACE('',(#237,#238),#239,.T.);
#135=PRESENTATION_STYLE_ASSIGNMENT((#240));
#136=ADVANCED_FACE('',(#241),#242,.T.);
#137=PRESENTATION_STYLE_ASSIGNMENT((#243));
#138=EDGE_CURVE('',#100,#72,#244,.T.);
#139=PRESENTATION_STYLE_ASSIGNMENT((#245));
#140=VERTEX_POINT('',#246);
#141=PRESENTATION_STYLE_ASSIGNMENT((#247));
#142=EDGE_CURVE('',#94,#78,#248,.T.);
#143=PRODUCT('1','1','PART-1-DESC',(#249));
#144=PRODUCT_DEFINITION('NONE','NONE',#250,#2);
#145=AXIS2_PLACEMENT_3D('',#251,#252,#253);
#148=LENGTH_MEASURE_WITH_UNIT(LENGTH_MEASURE(1.0),#254);
#151=DIMENSIONAL_EXPONENTS(1.0,0.0,0.0,0.0,0.0,0.0,0.0);
#153=DIMENSIONAL_EXPONENTS(0.0,0.0,0.0,0.0,0.0,0.0,0.0);
#159=SURFACE_STYLE_USAGE(.BOTH.,#255);
#160=FACE_OUTER_BOUND('',#256,.T.);
#161=SPHERICAL_SURFACE('',#257,12.5);
#162=CURVE_STYLE('',#258,POSITIVE_LENGTH_MEASURE(1.0E-006),#259);
#163=CIRCLE('',#260,12.5);
#164=CURVE_STYLE('',#261,POSITIVE_LENGTH_MEASURE(1.0E-006),#262);
#165=LINE('',#263,#264);
#166=CURVE_STYLE('',#265,POSITIVE_LENGTH_MEASURE(1.0E-006),#266);
#167=CIRCLE('',#267,6.00000000000001);
#168=POINT_STYLE(' ',#268,POSITIVE_LENGTH_MEASURE(1.0E-006),#269);
#169=CARTESIAN_POINT('',(93.969262078591,7.28906983689576E-014,41.7020143325667));
#170=CURVE_STYLE('',#270,POSITIVE_LENGTH_MEASURE(1.0E-006),#271);
#171=CIRCLE('',#272,9.99999999999999);
#172=SURFACE_STYLE_USAGE(.BOTH.,#273);
#173=FACE_OUTER_BOUND('',#274,.T.);
#174=CYLINDRICAL_SURFACE('',#275,6.0);
#175=POINT_STYLE(' ',#276,POSITIVE_LENGTH_MEASURE(1.0E-006),#277);
#176=CARTESIAN_POINT('',(6.00000000000006,4.00125953045133E-015,18.4658560997306));
#177=CURVE_STYLE('',#278,POSITIVE_LENGTH_MEASURE(1.0E-006),#279);
#178=CIRCLE('',#280,6.00000000000001);
#179=SURFACE_STYLE_USAGE(.BOTH.,#281);
#180=FACE_OUTER_BOUND('',#282,.T.);
#181=SPHERICAL_SURFACE('',#283,8.00000000000001);
#182=CURVE_STYLE('',#284,POSITIVE_LENGTH_MEASURE(1.0E-006),#285);
#183=CIRCLE('',#286,5.50000000000003);
#184=CURVE_STYLE('',#287,POSITIVE_LENGTH_MEASURE(1.0E-006),#288);
#185=CIRCLE('',#289,5.50000000000003);
#186=POINT_STYLE(' ',#290,POSITIVE_LENGTH_MEASURE(1.0E-006),#291);
#187=CARTESIAN_POINT('',(-5.99999999999995,2.47352723792082E-015,-2.8421709430404E-014));
#188=CURVE_STYLE('',#292,POSITIVE_LENGTH_MEASURE(1.0E-006),#293);
#189=CIRCLE('',#294,7.99615933044265);
#190=CURVE_STYLE('',#295,POSITIVE_LENGTH_MEASURE(1.0E-006),#296);
#191=LINE('',#297,#298);
#192=POINT_STYLE(' ',#299,POSITIVE_LENGTH_MEASURE(1.0E-006),#300);
#193=CARTESIAN_POINT('',(-5.99999999999994,2.47352723792082E-015,18.4658560997306));
#194=POINT_STYLE(' ',#301,POSITIVE_LENGTH_MEASURE(1.0E-006),#302);
#195=CARTESIAN_POINT('',(-9.99999999999994,1.45840157771549E-016,-3.5527136788005E-014));
#196=CURVE_STYLE('',#303,POSITIVE_LENGTH_MEASURE(1.0E-006),#304);
#197=CIRCLE('',#305,9.99999999999999);
#198=POINT_STYLE(' ',#306,POSITIVE_LENGTH_MEASURE(1.0E-006),#307);
#199=CARTESIAN_POINT('',(83.4839587182524,7.38218032570539E-014,46.395011036785));
#200=CURVE_STYLE('',#308,POSITIVE_LENGTH_MEASURE(1.0E-006),#309);
#201=LINE('',#310,#311);
#202=POINT_STYLE(' ',#312,POSITIVE_LENGTH_MEASURE(1.0E-006),#313);
#203=CARTESIAN_POINT('',(8.66691271929058,6.84108347286357E-014,16.5074760014223));
#204=CURVE_STYLE('',#314,POSITIVE_LENGTH_MEASURE(1.0E-006),#315);
#205=CIRCLE('',#316,12.5);
#206=SURFACE_STYLE_USAGE(.BOTH.,#317);
#207=FACE_OUTER_BOUND('',#318,.T.);
#208=CONICAL_SURFACE('',#319,6.74807966522132,0.0309878076985048);
#209=POINT_STYLE(' ',#320,POSITIVE_LENGTH_MEASURE(1.0E-006),#321);
#210=CARTESIAN_POINT('',(12.4291342958729,2.20307958609811E-012,6.17085717277734));
#211=SURFACE_STYLE_USAGE(.BOTH.,#322);
#212=FACE_OUTER_BOUND('',#323,.T.);
#213=CONICAL_SURFACE('',#324,6.74807966522132,0.0309878076985048);
#214=CURVE_STYLE('',#325,POSITIVE_LENGTH_MEASURE(1.0E-006),#326);
#215=CIRCLE('',#327,12.5);
#216=CURVE_STYLE('',#328,POSITIVE_LENGTH_MEASURE(1.0E-006),#329);
#217=CIRCLE('',#330,7.99615933044265);
#218=CURVE_STYLE('',#331,POSITIVE_LENGTH_MEASURE(1.0E-006),#332);
#219=CIRCLE('',#333,6.0);
#220=POINT_STYLE(' ',#334,POSITIVE_LENGTH_MEASURE(1.0E-006),#335);
#221=CARTESIAN_POINT('',(6.00000000000006,2.87058929502634E-015,-2.8421709430404E-014));
#222=CURVE_STYLE('',#336,POSITIVE_LENGTH_MEASURE(1.0E-006),#337);
#223=LINE('',#338,#339);
#224=CURVE_STYLE('',#340,POSITIVE_LENGTH_MEASURE(1.0E-006),#341);
#225=CIRCLE('',#342,8.00000000000001);
#226=SURFACE_STYLE_USAGE(.BOTH.,#343);
#227=FACE_OUTER_BOUND('',#344,.T.);
#228=CYLINDRICAL_SURFACE('',#345,6.0);
#229=SURFACE_STYLE_USAGE(.BOTH.,#346);
#230=CLOSED_SHELL('',(#132,#126,#136,#108,#112,#82,#134,#76,#64));
#231=POINT_STYLE(' ',#347,POSITIVE_LENGTH_MEASURE(1.0E-006),#348);
#232=CARTESIAN_POINT('',(88.9536538387581,3.18192265658572E-012,31.3671472018943));
#233=SURFACE_STYLE_USAGE(.BOTH.,#349);
#234=FACE_OUTER_BOUND('',#350,.T.);
#235=SPHERICAL_SURFACE('',#351,12.5);
#236=SURFACE_STYLE_USAGE(.BOTH.,#352);
#237=FACE_BOUND('',#353,.T.);
#238=FACE_OUTER_BOUND('',#354,.T.);
#239=PLANE('',#355);
#240=SURFACE_STYLE_USAGE(.BOTH.,#356);
#241=FACE_OUTER_BOUND('',#357,.T.);
#242=SPHERICAL_SURFACE('',#358,8.00000000000001);
#243=CURVE_STYLE('',#359,POSITIVE_LENGTH_MEASURE(1.0E-006),#360);
#244=CIRCLE('',#361,8.00000000000001);
#245=POINT_STYLE(' ',#362,POSITIVE_LENGTH_MEASURE(1.0E-006),#363);
#246=CARTESIAN_POINT('',(10.0000000000001,3.36043183655529E-015,-3.5527136788005E-014));
#247=CURVE_STYLE('',#364,POSITIVE_LENGTH_MEASURE(1.0E-006),#365);
#248=CIRCLE('',#366,6.0);
#249=PRODUCT_CONTEXT('',#50,'mechanical');
#250=PRODUCT_DEFINITION_FORMATION_WITH_SPECIFIED_SOURCE(' ','NONE',#143,.NOT_KNOWN.);
#251=CARTESIAN_POINT('',(0.0,0.0,0.0));
#252=DIRECTION('',(0.0,0.0,1.0));
#253=DIRECTION('',(1.0,0.0,0.0));
#254= (NAMED_UNIT(#151)LENGTH_UNIT()SI_UNIT(.MILLI.,.METRE.));
#255=SURFACE_SIDE_STYLE('',(#368));
#256=EDGE_LOOP('',(#369,#370,#371,#372,#373,#374));
#257=AXIS2_PLACEMENT_3D('',#375,#376,#377);
#258=DRAUGHTING_PRE_DEFINED_CURVE_FONT('continuous');
#259=COLOUR_RGB('',0.509803950786591,0.509803950786591,0.588235318660736);
#260=AXIS2_PLACEMENT_3D('',#378,#379,#380);
#261=DRAUGHTING_PRE_DEFINED_CURVE_FONT('continuous');
#262=COLOUR_RGB('',0.509803950786591,0.509803950786591,0.588235318660736);
#263=CARTESIAN_POINT('',(6.00000000000006,4.05946419839499E-015,9.2329280498653));
#264=VECTOR('',#381,1.0);
#265=DRAUGHTING_PRE_DEFINED_CURVE_FONT('continuous');
#266=COLOUR_RGB('',0.509803950786591,0.509803950786591,0.588235318660736);
#267=AXIS2_PLACEMENT_3D('',#382,#383,#384);
#268=PRE_DEFINED_MARKER('');
#269=COLOUR_RGB('',0.509803950786591,0.509803950786591,0.588235318660736);
#270=DRAUGHTING_PRE_DEFINED_CURVE_FONT('continuous');
#271=COLOUR_RGB('',0.509803950786591,0.509803950786591,0.588235318660736);
#272=AXIS2_PLACEMENT_3D('',#385,#386,#387);
#273=SURFACE_SIDE_STYLE('',(#388));
#274=EDGE_LOOP('',(#389,#390,#391,#392));
#275=AXIS2_PLACEMENT_3D('',#393,#394,#395);
#276=PRE_DEFINED_MARKER('');
#277=COLOUR_RGB('',0.509803950786591,0.509803950786591,0.588235318660736);
#278=DRAUGHTING_PRE_DEFINED_CURVE_FONT('continuous');
#279=COLOUR_RGB('',0.509803950786591,0.509803950786591,0.588235318660736);
#280=AXIS2_PLACEMENT_3D('',#396,#397,#398);
#281=SURFACE_SIDE_STYLE('',(#399));
#282=EDGE_LOOP('',(#400,#401,#402));
#283=AXIS2_PLACEMENT_3D('',#403,#404,#405);
#284=DRAUGHTING_PRE_DEFINED_CURVE_FONT('continuous');
#285=COLOUR_RGB('',0.509803950786591,0.509803950786591,0.588235318660736);
#286=AXIS2_PLACEMENT_3D('',#406,#407,#408);
#287=DRAUGHTING_PRE_DEFINED_CURVE_FONT('continuous');
#288=COLOUR_RGB('',0.509803950786591,0.509803950786591,0.588235318660736);
#289=AXIS2_PLACEMENT_3D('',#409,#410,#411);
#290=PRE_DEFINED_MARKER('');
#291=COLOUR_RGB('',0.509803950786591,0.509803950786591,0.588235318660736);
#292=DRAUGHTING_PRE_DEFINED_CURVE_FONT('continuous');
#293=COLOUR_RGB('',0.509803950786591,0.509803950786591,0.588235318660736);
#294=AXIS2_PLACEMENT_3D('',#412,#413,#414);
#295=DRAUGHTING_PRE_DEFINED_CURVE_FONT('continuous');
#296=COLOUR_RGB('',0.509803950786591,0.509803950786591,0.588235318660736);
#297=CARTESIAN_POINT('',(-5.99999999999995,2.47352723792082E-015,9.2329280498653));
#298=VECTOR('',#415,1.0);
#299=PRE_DEFINED_MARKER('');
#300=COLOUR_RGB('',0.509803950786591,0.509803950786591,0.588235318660736);
#301=PRE_DEFINED_MARKER('');
#302=COLOUR_RGB('',0.509803950786591,0.509803950786591,0.588235318660736);
#303=DRAUGHTING_PRE_DEFINED_CURVE_FONT('continuous');
#304=COLOUR_RGB('',0.509803950786591,0.509803950786591,0.588235318660736);
#305=AXIS2_PLACEMENT_3D('',#416,#417,#418);
#306=PRE_DEFINED_MARKER('');
#307=COLOUR_RGB('',0.509803950786591,0.509803950786591,0.588235318660736);
#308=DRAUGHTING_PRE_DEFINED_CURVE_FONT('continuous');
#309=COLOUR_RGB('',0.509803950786591,0.509803950786591,0.588235318660736);
#310=CARTESIAN_POINT('',(50.6913940673155,2.69250112134192E-012,18.7690021873358));
#311=VECTOR('',#419,1.0);
#312=PRE_DEFINED_MARKER('');
#313=COLOUR_RGB('',0.509803950786591,0.509803950786591,0.588235318660736);
#314=DRAUGHTING_PRE_DEFINED_CURVE_FONT('continuous');
#315=COLOUR_RGB('',0.509803950786591,0.509803950786591,0.588235318660736);
#316=AXIS2_PLACEMENT_3D('',#420,#421,#422);
#317=SURFACE_SIDE_STYLE('',(#423));
#318=EDGE_LOOP('',(#424,#425,#426,#427));
#319=AXIS2_PLACEMENT_3D('',#428,#429,#430);
#320=PRE_DEFINED_MARKER('');
#321=COLOUR_RGB('',0.509803950786591,0.509803950786591,0.588235318660736);
#322=SURFACE_SIDE_STYLE('',(#431));
#323=EDGE_LOOP('',(#432,#433,#434,#435));
#324=AXIS2_PLACEMENT_3D('',#436,#437,#438);
#325=DRAUGHTING_PRE_DEFINED_CURVE_FONT('continuous');
#326=COLOUR_RGB('',0.509803950786591,0.509803950786591,0.588235318660736);
#327=AXIS2_PLACEMENT_3D('',#439,#440,#441);
#328=DRAUGHTING_PRE_DEFINED_CURVE_FONT('continuous');
#329=COLOUR_RGB('',0.509803950786591,0.509803950786591,0.588235318660736);
#330=AXIS2_PLACEMENT_3D('',#442,#443,#444);
#331=DRAUGHTING_PRE_DEFINED_CURVE_FONT('continuous');
#332=COLOUR_RGB('',0.509803950786591,0.509803950786591,0.588235318660736);
#333=AXIS2_PLACEMENT_3D('',#445,#446,#447);
#334=PRE_DEFINED_MARKER('');
#335=COLOUR_RGB('',0.509803950786591,0.509803950786591,0.588235318660736);
#336=DRAUGHTING_PRE_DEFINED_CURVE_FONT('continuous');
#337=COLOUR_RGB('',0.509803950786591,0.509803950786591,0.588235318660736);
#338=CARTESIAN_POINT('',(46.0754357187715,-2.54639244814712E-012,31.4512435191036));
#339=VECTOR('',#448,1.0);
#340=DRAUGHTING_PRE_DEFINED_CURVE_FONT('continuous');
#341=COLOUR_RGB('',0.509803950786591,0.509803950786591,0.588235318660736);
#342=AXIS2_PLACEMENT_3D('',#449,#450,#451);
#343=SURFACE_SIDE_STYLE('',(#452));
#344=EDGE_LOOP('',(#453,#454,#455,#456));
#345=AXIS2_PLACEMENT_3D('',#457,#458,#459);
#346=SURFACE_SIDE_STYLE('',(#460));
#347=PRE_DEFINED_MARKER('');
#348=COLOUR_RGB('',0.509803950786591,0.509803950786591,0.588235318660736);
#349=SURFACE_SIDE_STYLE('',(#461));
#350=EDGE_LOOP('',(#462,#463,#464,#465,#466,#467));
#351=AXIS2_PLACEMENT_3D('',#468,#469,#470);
#352=SURFACE_SIDE_STYLE('',(#471));
#353=EDGE_LOOP('',(#472,#473));
#354=EDGE_LOOP('',(#474,#475));
#355=AXIS2_PLACEMENT_3D('',#476,#477,#478);
#356=SURFACE_SIDE_STYLE('',(#479));
#357=EDGE_LOOP('',(#480,#481,#482));
#358=AXIS2_PLACEMENT_3D('',#483,#484,#485);
#359=DRAUGHTING_PRE_DEFINED_CURVE_FONT('continuous');
#360=COLOUR_RGB('',0.509803950786591,0.509803950786591,0.588235318660736);
#361=AXIS2_PLACEMENT_3D('',#486,#487,#488);
#362=PRE_DEFINED_MARKER('');
#363=COLOUR_RGB('',0.509803950786591,0.509803950786591,0.588235318660736);
#364=DRAUGHTING_PRE_DEFINED_CURVE_FONT('continuous');
#365=COLOUR_RGB('',0.509803950786591,0.509803950786591,0.588235318660736);
#366=AXIS2_PLACEMENT_3D('',#489,#490,#491);
#368=SURFACE_STYLE_FILL_AREA(#492);
#369=ORIENTED_EDGE('',*,*,#66,.T.);
#370=ORIENTED_EDGE('',*,*,#86,.T.);
#371=ORIENTED_EDGE('',*,*,#114,.T.);
#372=ORIENTED_EDGE('',*,*,#74,.F.);
#373=ORIENTED_EDGE('',*,*,#106,.T.);
#374=ORIENTED_EDGE('',*,*,#142,.T.);
#375=CARTESIAN_POINT('',(6.21724893790088E-014,2.5950528654163E-015,7.49999999999997));
#376=DIRECTION('',(0.0,0.0,-1.0));
#377=DIRECTION('',(1.0,1.22460635382238E-016,0.0));
#378=CARTESIAN_POINT('',(6.21724893790088E-014,2.5950528654163E-015,7.49999999999997));
#379=DIRECTION('',(-2.44921270764475E-016,1.0,0.0));
#380=DIRECTION('',(0.0,0.0,-1.0));
#381=DIRECTION('',(-0.0,-0.0,-1.0));
#382=CARTESIAN_POINT('',(5.6843418860808E-014,3.2664957181579E-015,-2.8421709430404E-014));
#383=DIRECTION('',(0.0,0.0,-1.0));
#384=DIRECTION('',(1.0,9.70077799060963E-018,0.0));
#385=CARTESIAN_POINT('',(5.6843418860808E-014,3.2664957181579E-015,-3.5527136788005E-014));
#386=DIRECTION('',(0.0,0.0,-1.0));
#387=DIRECTION('',(1.0,9.70077799060964E-018,0.0));
#388=SURFACE_STYLE_FILL_AREA(#493);
#389=ORIENTED_EDGE('',*,*,#68,.T.);
#390=ORIENTED_EDGE('',*,*,#80,.T.);
#391=ORIENTED_EDGE('',*,*,#92,.T.);
#392=ORIENTED_EDGE('',*,*,#118,.F.);
#393=CARTESIAN_POINT('',(5.6843418860808E-014,3.2664957181579E-015,9.2329280498653));
#394=DIRECTION('',(-0.0,-0.0,1.0));
#395=DIRECTION('',(1.0,9.70077799060962E-018,0.0));
#396=CARTESIAN_POINT('',(5.6843418860808E-014,3.2664957181579E-015,-2.8421709430404E-014));
#397=DIRECTION('',(0.0,0.0,-1.0));
#398=DIRECTION('',(1.0,9.70077799060963E-018,0.0));
#399=SURFACE_STYLE_FILL_AREA(#494);
#400=ORIENTED_EDGE('',*,*,#138,.F.);
#401=ORIENTED_EDGE('',*,*,#90,.T.);
#402=ORIENTED_EDGE('',*,*,#124,.F.);
#403=CARTESIAN_POINT('',(86.4517211123037,7.2397780079173E-014,38.9658531859614));
#404=DIRECTION('',(0.939692620785909,1.22845103914193E-016,0.342020143325668));
#405=DIRECTION('',(-0.342020143325668,1.79998313084964E-016,0.939692620785909));
#406=CARTESIAN_POINT('',(10.5480235075817,3.97398573688496E-015,11.3391665870999));
#407=DIRECTION('',(-0.939692620785909,-1.22845103914193E-016,-0.342020143325668));
#408=DIRECTION('',(0.342020143325668,0.0,-0.939692620785909));
#409=CARTESIAN_POINT('',(10.5480235075817,3.97398573688496E-015,11.3391665870999));
#410=DIRECTION('',(-0.939692620785909,-1.22845103914193E-016,-0.342020143325668));
#411=DIRECTION('',(0.342020143325668,0.0,-0.939692620785909));
#412=CARTESIAN_POINT('',(86.2188062785052,7.80005205766838E-014,38.8810791193397));
#413=DIRECTION('',(0.939692620785909,1.22845103914188E-016,0.342020143325668));
#414=DIRECTION('',(-0.342020143325668,-3.88299084904475E-013,0.939692620785909));
#415=DIRECTION('',(-0.0,-0.0,1.0));
#416=CARTESIAN_POINT('',(5.6843418860808E-014,3.2664957181579E-015,-3.5527136788005E-014));
#417=DIRECTION('',(0.0,0.0,-1.0));
#418=DIRECTION('',(1.0,9.70077799060964E-018,0.0));
#419=DIRECTION('',(-0.949838248008383,-1.21496037178783E-014,-0.312741590806795));
#420=CARTESIAN_POINT('',(6.21724893790088E-014,2.5950528654163E-015,7.49999999999997));
#421=DIRECTION('',(-2.44921270764475E-016,1.0,0.0));
#422=DIRECTION('',(0.0,0.0,-1.0));
#423=SURFACE_STYLE_FILL_AREA(#495);
#424=ORIENTED_EDGE('',*,*,#122,.F.);
#425=ORIENTED_EDGE('',*,*,#84,.F.);
#426=ORIENTED_EDGE('',*,*,#102,.F.);
#427=ORIENTED_EDGE('',*,*,#90,.F.);
#428=CARTESIAN_POINT('',(48.3834148930435,7.30543365974014E-014,25.1101228532197));
#429=DIRECTION('',(0.939692620785909,1.22845103914202E-016,0.342020143325668));
#430=DIRECTION('',(-0.342020143325668,-3.88299084904475E-013,0.939692620785909));
#431=SURFACE_STYLE_FILL_AREA(#496);
#432=ORIENTED_EDGE('',*,*,#122,.T.);
#433=ORIENTED_EDGE('',*,*,#116,.F.);
#434=ORIENTED_EDGE('',*,*,#102,.T.);
#435=ORIENTED_EDGE('',*,*,#86,.F.);
#436=CARTESIAN_POINT('',(48.3834148930435,7.30543365974014E-014,25.1101228532197));
#437=DIRECTION('',(0.939692620785909,1.22845103914202E-016,0.342020143325668));
#438=DIRECTION('',(-0.342020143325668,-3.88299084904475E-013,0.939692620785909));
#439=CARTESIAN_POINT('',(6.21724893790088E-014,2.5950528654163E-015,7.49999999999997));
#440=DIRECTION('',(-2.44921270764475E-016,1.0,0.0));
#441=DIRECTION('',(0.0,0.0,-1.0));
#442=CARTESIAN_POINT('',(86.2188062785052,7.80005205766838E-014,38.8810791193397));
#443=DIRECTION('',(0.939692620785909,1.22845103914188E-016,0.342020143325668));
#444=DIRECTION('',(-0.342020143325668,-3.88299084904475E-013,0.939692620785909));
#445=CARTESIAN_POINT('',(5.6843418860808E-014,3.2664957181579E-015,18.4658560997306));
#446=DIRECTION('',(0.0,0.0,-1.0));
#447=DIRECTION('',(1.0,9.70077799060962E-018,0.0));
#448=DIRECTION('',(0.928644731352954,-1.19040314619126E-014,0.370970299256423));
#449=CARTESIAN_POINT('',(86.4517211123037,7.2397780079173E-014,38.9658531859614));
#450=DIRECTION('',(-1.19895847429617E-017,1.0,-3.26233942012884E-016));
#451=DIRECTION('',(0.0,-3.26233942012884E-016,-1.0));
#452=SURFACE_STYLE_FILL_AREA(#497);
#453=ORIENTED_EDGE('',*,*,#68,.F.);
#454=ORIENTED_EDGE('',*,*,#142,.F.);
#455=ORIENTED_EDGE('',*,*,#92,.F.);
#456=ORIENTED_EDGE('',*,*,#70,.T.);
#457=CARTESIAN_POINT('',(5.6843418860808E-014,3.2664957181579E-015,9.2329280498653));
#458=DIRECTION('',(-0.0,-0.0,1.0));
#459=DIRECTION('',(1.0,9.70077799060962E-018,0.0));
#460=SURFACE_STYLE_FILL_AREA(#498);
#461=SURFACE_STYLE_FILL_AREA(#499);
#462=ORIENTED_EDGE('',*,*,#66,.F.);
#463=ORIENTED_EDGE('',*,*,#118,.T.);
#464=ORIENTED_EDGE('',*,*,#106,.F.);
#465=ORIENTED_EDGE('',*,*,#98,.F.);
#466=ORIENTED_EDGE('',*,*,#114,.F.);
#467=ORIENTED_EDGE('',*,*,#84,.T.);
#468=CARTESIAN_POINT('',(6.21724893790088E-014,2.5950528654163E-015,7.49999999999997));
#469=DIRECTION('',(0.0,0.0,-1.0));
#470=DIRECTION('',(1.0,1.22460635382238E-016,0.0));
#471=SURFACE_STYLE_FILL_AREA(#500);
#472=ORIENTED_EDGE('',*,*,#80,.F.);
#473=ORIENTED_EDGE('',*,*,#70,.F.);
#474=ORIENTED_EDGE('',*,*,#98,.T.);
#475=ORIENTED_EDGE('',*,*,#74,.T.);
#476=CARTESIAN_POINT('',(8.00000000000006,3.11551056579081E-015,-3.19744231092045E-014));
#477=DIRECTION('',(0.0,0.0,-1.0));
#478=DIRECTION('',(1.0,1.22460635382238E-016,0.0));
#479=SURFACE_STYLE_FILL_AREA(#501);
#480=ORIENTED_EDGE('',*,*,#138,.T.);
#481=ORIENTED_EDGE('',*,*,#124,.T.);
#482=ORIENTED_EDGE('',*,*,#116,.T.);
#483=CARTESIAN_POINT('',(86.4517211123037,7.2397780079173E-014,38.9658531859614));
#484=DIRECTION('',(0.939692620785909,1.22845103914193E-016,0.342020143325668));
#485=DIRECTION('',(-0.342020143325668,1.79998313084964E-016,0.939692620785909));
#486=CARTESIAN_POINT('',(86.4517211123037,7.2397780079173E-014,38.9658531859614));
#487=DIRECTION('',(-1.19895847429617E-017,1.0,-3.26233942012884E-016));
#488=DIRECTION('',(0.0,-3.26233942012884E-016,-1.0));
#489=CARTESIAN_POINT('',(5.6843418860808E-014,3.2664957181579E-015,18.4658560997306));
#490=DIRECTION('',(0.0,0.0,-1.0));
#491=DIRECTION('',(1.0,9.70077799060962E-018,0.0));
#492=FILL_AREA_STYLE('',(#502));
#493=FILL_AREA_STYLE('',(#503));
#494=FILL_AREA_STYLE('',(#504));
#495=FILL_AREA_STYLE('',(#505));
#496=FILL_AREA_STYLE('',(#506));
#497=FILL_AREA_STYLE('',(#507));
#498=FILL_AREA_STYLE('',(#508));
#499=FILL_AREA_STYLE('',(#509));
#500=FILL_AREA_STYLE('',(#510));
#501=FILL_AREA_STYLE('',(#511));
#502=FILL_AREA_STYLE_COLOUR('',#512);
#503=FILL_AREA_STYLE_COLOUR('',#513);
#504=FILL_AREA_STYLE_COLOUR('',#514);
#505=FILL_AREA_STYLE_COLOUR('',#515);
#506=FILL_AREA_STYLE_COLOUR('',#516);
#507=FILL_AREA_STYLE_COLOUR('',#517);
#508=FILL_AREA_STYLE_COLOUR('',#518);
#509=FILL_AREA_STYLE_COLOUR('',#519);
#510=FILL_AREA_STYLE_COLOUR('',#520);
#511=FILL_AREA_STYLE_COLOUR('',#521);
#512=COLOUR_RGB('',0.509803950786591,0.509803950786591,0.588235318660736);
#513=COLOUR_RGB('',0.509803950786591,0.509803950786591,0.588235318660736);
#514=COLOUR_RGB('',0.509803950786591,0.509803950786591,0.588235318660736);
#515=COLOUR_RGB('',0.509803950786591,0.509803950786591,0.588235318660736);
#516=COLOUR_RGB('',0.509803950786591,0.509803950786591,0.588235318660736);
#517=COLOUR_RGB('',0.509803950786591,0.509803950786591,0.588235318660736);
#518=COLOUR_RGB('',0.509803950786591,0.509803950786591,0.588235318660736);
#519=COLOUR_RGB('',0.509803950786591,0.509803950786591,0.588235318660736);
#520=COLOUR_RGB('',0.509803950786591,0.509803950786591,0.588235318660736);
#521=COLOUR_RGB('',0.509803950786591,0.509803950786591,0.588235318660736);
ENDSEC;
END-ISO-10303-21;
