ISO-10303-21;
HEADER;
FILE_DESCRIPTION(('STEP AP214'),'1');
FILE_NAME(' ','  ',('TraceParts'),('TraceParts S.A.'),'XStep 1.0',' ',' ');
FILE_SCHEMA(('automotive_design'));
ENDSEC;
DATA;
#1=MECHANICAL_DESIGN_GEOMETRIC_PRESENTATION_REPRESENTATION(' ',(#10,#11,#12,#13,#14,#15,#16,#17,#18,#19,#20,#21,#22,#23,#24,#25,#26,#27,#28,#29,#30,#31,#32,#33,#34,#35,#36,#37,#38,#39,#40,#41,#42,#43,#44,#45),#6);
#2=PRODUCT_DEFINITION_CONTEXT('',#46,'design');
#3=APPLICATION_PROTOCOL_DEFINITION('INTERNATIONAL STANDARD','automotive_design',1994,#46);
#4=PRODUCT_CATEGORY_RELATIONSHIP('NONE','NONE',#47,#48);
#5=SHAPE_DEFINITION_REPRESENTATION(#49,#50);
#6= (GEOMETRIC_REPRESENTATION_CONTEXT(3)GLOBAL_UNCERTAINTY_ASSIGNED_CONTEXT((#53))GLOBAL_UNIT_ASSIGNED_CONTEXT((#55,#56,#57))REPRESENTATION_CONTEXT('NONE','WORKSPACE'));
#10=STYLED_ITEM('',(#59),#60);
#11=STYLED_ITEM('',(#61),#62);
#12=STYLED_ITEM('',(#63),#64);
#13=STYLED_ITEM('',(#65),#66);
#14=STYLED_ITEM('',(#67),#68);
#15=STYLED_ITEM('',(#69),#70);
#16=STYLED_ITEM('',(#71),#72);
#17=STYLED_ITEM('',(#73),#74);
#18=STYLED_ITEM('',(#75),#76);
#19=STYLED_ITEM('',(#77),#78);
#20=STYLED_ITEM('',(#79),#80);
#21=STYLED_ITEM('',(#81),#82);
#22=STYLED_ITEM('',(#83),#84);
#23=STYLED_ITEM('',(#85),#86);
#24=STYLED_ITEM('',(#87),#88);
#25=STYLED_ITEM('',(#89),#90);
#26=STYLED_ITEM('',(#91),#92);
#27=STYLED_ITEM('',(#93),#94);
#28=STYLED_ITEM('',(#95),#96);
#29=STYLED_ITEM('',(#97),#98);
#30=STYLED_ITEM('',(#99),#100);
#31=STYLED_ITEM('',(#101),#102);
#32=STYLED_ITEM('',(#103),#104);
#33=STYLED_ITEM('',(#105),#106);
#34=STYLED_ITEM('',(#107),#108);
#35=STYLED_ITEM('',(#109),#110);
#36=STYLED_ITEM('',(#111),#112);
#37=STYLED_ITEM('',(#113),#114);
#38=STYLED_ITEM('',(#115),#116);
#39=STYLED_ITEM('',(#117),#118);
#40=STYLED_ITEM('',(#119),#120);
#41=STYLED_ITEM('',(#121),#122);
#42=STYLED_ITEM('',(#123),#124);
#43=STYLED_ITEM('',(#125),#126);
#44=STYLED_ITEM('',(#127),#128);
#45=STYLED_ITEM('',(#129),#130);
#46=APPLICATION_CONTEXT(' ');
#47=PRODUCT_CATEGORY('part','NONE');
#48=PRODUCT_RELATED_PRODUCT_CATEGORY('detail',' ',(#131));
#49=PRODUCT_DEFINITION_SHAPE('NONE','NONE',#132);
#50=ADVANCED_BREP_SHAPE_REPRESENTATION('1',(#130,#133),#6);
#53=UNCERTAINTY_MEASURE_WITH_UNIT(LENGTH_MEASURE(1.0E-006),#55,'','');
#55= (CONVERSION_BASED_UNIT('MILLIMETRE',#136)LENGTH_UNIT()NAMED_UNIT(#139));
#56= (NAMED_UNIT(#141)PLANE_ANGLE_UNIT()SI_UNIT($,.RADIAN.));
#57= (NAMED_UNIT(#141)SOLID_ANGLE_UNIT()SI_UNIT($,.STERADIAN.));
#59=PRESENTATION_STYLE_ASSIGNMENT((#147));
#60=EDGE_CURVE('',#62,#110,#148,.T.);
#61=PRESENTATION_STYLE_ASSIGNMENT((#149));
#62=VERTEX_POINT('',#150);
#63=PRESENTATION_STYLE_ASSIGNMENT((#151));
#64=EDGE_CURVE('',#70,#96,#152,.T.);
#65=PRESENTATION_STYLE_ASSIGNMENT((#153));
#66=EDGE_CURVE('',#120,#92,#154,.T.);
#67=PRESENTATION_STYLE_ASSIGNMENT((#155));
#68=EDGE_CURVE('',#92,#62,#156,.T.);
#69=PRESENTATION_STYLE_ASSIGNMENT((#157));
#70=VERTEX_POINT('',#158);
#71=PRESENTATION_STYLE_ASSIGNMENT((#159));
#72=EDGE_CURVE('',#110,#62,#160,.T.);
#73=PRESENTATION_STYLE_ASSIGNMENT((#161));
#74=EDGE_CURVE('',#90,#70,#162,.T.);
#75=PRESENTATION_STYLE_ASSIGNMENT((#163));
#76=ADVANCED_FACE('',(#164),#165,.T.);
#77=PRESENTATION_STYLE_ASSIGNMENT((#166));
#78=EDGE_CURVE('',#70,#90,#167,.T.);
#79=PRESENTATION_STYLE_ASSIGNMENT((#168));
#80=ADVANCED_FACE('',(#169),#170,.F.);
#81=PRESENTATION_STYLE_ASSIGNMENT((#171));
#82=EDGE_CURVE('',#96,#90,#172,.T.);
#83=PRESENTATION_STYLE_ASSIGNMENT((#173));
#84=ADVANCED_FACE('',(#174),#175,.F.);
#85=PRESENTATION_STYLE_ASSIGNMENT((#176));
#86=ADVANCED_FACE('',(#177),#178,.F.);
#87=PRESENTATION_STYLE_ASSIGNMENT((#179));
#88=EDGE_CURVE('',#110,#118,#180,.T.);
#89=PRESENTATION_STYLE_ASSIGNMENT((#181));
#90=VERTEX_POINT('',#182);
#91=PRESENTATION_STYLE_ASSIGNMENT((#183));
#92=VERTEX_POINT('',#184);
#93=PRESENTATION_STYLE_ASSIGNMENT((#185));
#94=ADVANCED_FACE('',(#186),#187,.T.);
#95=PRESENTATION_STYLE_ASSIGNMENT((#188));
#96=VERTEX_POINT('',#189);
#97=PRESENTATION_STYLE_ASSIGNMENT((#190));
#98=EDGE_CURVE('',#112,#128,#191,.T.);
#99=PRESENTATION_STYLE_ASSIGNMENT((#192));
#100=EDGE_CURVE('',#92,#118,#193,.T.);
#101=PRESENTATION_STYLE_ASSIGNMENT((#194));
#102=ADVANCED_FACE('',(#195,#196),#197,.T.);
#103=PRESENTATION_STYLE_ASSIGNMENT((#198));
#104=ADVANCED_FACE('',(#199),#200,.F.);
#105=PRESENTATION_STYLE_ASSIGNMENT((#201));
#106=EDGE_CURVE('',#118,#92,#202,.T.);
#107=PRESENTATION_STYLE_ASSIGNMENT((#203));
#108=ADVANCED_FACE('',(#204),#205,.F.);
#109=PRESENTATION_STYLE_ASSIGNMENT((#206));
#110=VERTEX_POINT('',#207);
#111=PRESENTATION_STYLE_ASSIGNMENT((#208));
#112=VERTEX_POINT('',#209);
#113=PRESENTATION_STYLE_ASSIGNMENT((#210));
#114=EDGE_CURVE('',#112,#110,#211,.T.);
#115=PRESENTATION_STYLE_ASSIGNMENT((#212));
#116=ADVANCED_FACE('',(#213),#214,.F.);
#117=PRESENTATION_STYLE_ASSIGNMENT((#215));
#118=VERTEX_POINT('',#216);
#119=PRESENTATION_STYLE_ASSIGNMENT((#217));
#120=VERTEX_POINT('',#218);
#121=PRESENTATION_STYLE_ASSIGNMENT((#219));
#122=EDGE_CURVE('',#62,#128,#220,.T.);
#123=PRESENTATION_STYLE_ASSIGNMENT((#221));
#124=EDGE_CURVE('',#128,#112,#222,.T.);
#125=PRESENTATION_STYLE_ASSIGNMENT((#223));
#126=EDGE_CURVE('',#118,#120,#224,.T.);
#127=PRESENTATION_STYLE_ASSIGNMENT((#225));
#128=VERTEX_POINT('',#226);
#129=PRESENTATION_STYLE_ASSIGNMENT((#227));
#130=MANIFOLD_SOLID_BREP('1',#228);
#131=PRODUCT('1','1','PART-1-DESC',(#229));
#132=PRODUCT_DEFINITION('NONE','NONE',#230,#2);
#133=AXIS2_PLACEMENT_3D('',#231,#232,#233);
#136=LENGTH_MEASURE_WITH_UNIT(LENGTH_MEASURE(1.0),#234);
#139=DIMENSIONAL_EXPONENTS(1.0,0.0,0.0,0.0,0.0,0.0,0.0);
#141=DIMENSIONAL_EXPONENTS(0.0,0.0,0.0,0.0,0.0,0.0,0.0);
#147=CURVE_STYLE('',#235,POSITIVE_LENGTH_MEASURE(1.0E-006),#236);
#148=CIRCLE('',#237,2.15000000000001);
#149=POINT_STYLE(' ',#238,POSITIVE_LENGTH_MEASURE(1.0E-006),#239);
#150=CARTESIAN_POINT('',(2.14999999999995,2.21779591069671E-014,0.349999999999937));
#151=CURVE_STYLE('',#240,POSITIVE_LENGTH_MEASURE(1.0E-006),#241);
#152=CIRCLE('',#242,10.0);
#153=CURVE_STYLE('',#243,POSITIVE_LENGTH_MEASURE(1.0E-006),#244);
#154=LINE('',#245,#246);
#155=CURVE_STYLE('',#247,POSITIVE_LENGTH_MEASURE(1.0E-006),#248);
#156=LINE('',#249,#250);
#157=POINT_STYLE(' ',#251,POSITIVE_LENGTH_MEASURE(1.0E-006),#252);
#158=CARTESIAN_POINT('',(5.99999999999994,2.2199389718159E-014,-1.4210854715202E-014));
#159=CURVE_STYLE('',#253,POSITIVE_LENGTH_MEASURE(1.0E-006),#254);
#160=CIRCLE('',#255,2.15000000000001);
#161=CURVE_STYLE('',#256,POSITIVE_LENGTH_MEASURE(1.0E-006),#257);
#162=CIRCLE('',#258,5.99999999999999);
#163=SURFACE_STYLE_USAGE(.BOTH.,#259);
#164=FACE_OUTER_BOUND('',#260,.T.);
#165=SPHERICAL_SURFACE('',#261,10.0);
#166=CURVE_STYLE('',#262,POSITIVE_LENGTH_MEASURE(1.0E-006),#263);
#167=CIRCLE('',#264,5.99999999999999);
#168=SURFACE_STYLE_USAGE(.BOTH.,#265);
#169=FACE_OUTER_BOUND('',#266,.T.);
#170=CONICAL_SURFACE('',#267,1.075,1.0471975511966);
#171=CURVE_STYLE('',#268,POSITIVE_LENGTH_MEASURE(1.0E-006),#269);
#172=CIRCLE('',#270,10.0);
#173=SURFACE_STYLE_USAGE(.BOTH.,#271);
#174=FACE_OUTER_BOUND('',#272,.T.);
#175=CONICAL_SURFACE('',#273,2.32499999999999,0.785398163397448);
#176=SURFACE_STYLE_USAGE(.BOTH.,#274);
#177=FACE_OUTER_BOUND('',#275,.T.);
#178=CONICAL_SURFACE('',#276,1.075,1.0471975511966);
#179=CURVE_STYLE('',#277,POSITIVE_LENGTH_MEASURE(1.0E-006),#278);
#180=LINE('',#279,#280);
#181=POINT_STYLE(' ',#281,POSITIVE_LENGTH_MEASURE(1.0E-006),#282);
#182=CARTESIAN_POINT('',(-6.00000000000005,2.09747833643367E-014,-1.4210854715202E-014));
#183=POINT_STYLE(' ',#283,POSITIVE_LENGTH_MEASURE(1.0E-006),#284);
#184=CARTESIAN_POINT('',(2.14999999999995,2.1648316858939E-014,8.99999999999997));
#185=SURFACE_STYLE_USAGE(.BOTH.,#285);
#186=FACE_OUTER_BOUND('',#286,.T.);
#187=SPHERICAL_SURFACE('',#287,10.0);
#188=POINT_STYLE(' ',#288,POSITIVE_LENGTH_MEASURE(1.0E-006),#289);
#189=CARTESIAN_POINT('',(-5.6843418860808E-014,2.10972439997189E-014,18.0));
#190=CURVE_STYLE('',#290,POSITIVE_LENGTH_MEASURE(1.0E-006),#291);
#191=CIRCLE('',#292,2.49999999999997);
#192=CURVE_STYLE('',#293,POSITIVE_LENGTH_MEASURE(1.0E-006),#294);
#193=CIRCLE('',#295,2.15000000000001);
#194=SURFACE_STYLE_USAGE(.BOTH.,#296);
#195=FACE_BOUND('',#297,.T.);
#196=FACE_OUTER_BOUND('',#298,.T.);
#197=PLANE('',#299);
#198=SURFACE_STYLE_USAGE(.BOTH.,#300);
#199=FACE_OUTER_BOUND('',#301,.T.);
#200=CYLINDRICAL_SURFACE('',#302,2.15000000000001);
#201=CURVE_STYLE('',#303,POSITIVE_LENGTH_MEASURE(1.0E-006),#304);
#202=CIRCLE('',#305,2.15000000000001);
#203=SURFACE_STYLE_USAGE(.BOTH.,#306);
#204=FACE_OUTER_BOUND('',#307,.T.);
#205=CYLINDRICAL_SURFACE('',#308,2.15000000000001);
#206=POINT_STYLE(' ',#309,POSITIVE_LENGTH_MEASURE(1.0E-006),#310);
#207=CARTESIAN_POINT('',(-2.15000000000006,2.0833751383531E-014,0.349999999999937));
#208=POINT_STYLE(' ',#311,POSITIVE_LENGTH_MEASURE(1.0E-006),#312);
#209=CARTESIAN_POINT('',(-2.50000000000003,2.07908572367097E-014,-2.8421709430404E-014));
#210=CURVE_STYLE('',#313,POSITIVE_LENGTH_MEASURE(1.0E-006),#314);
#211=LINE('',#315,#316);
#212=SURFACE_STYLE_USAGE(.BOTH.,#317);
#213=FACE_OUTER_BOUND('',#318,.T.);
#214=CONICAL_SURFACE('',#319,2.32499999999999,0.785398163397448);
#215=POINT_STYLE(' ',#320,POSITIVE_LENGTH_MEASURE(1.0E-006),#321);
#216=CARTESIAN_POINT('',(-2.15000000000006,2.0833751383531E-014,8.99999999999997));
#217=POINT_STYLE(' ',#322,POSITIVE_LENGTH_MEASURE(1.0E-006),#323);
#218=CARTESIAN_POINT('',(-5.6843418860808E-014,2.15723114770757E-014,10.2413030787577));
#219=CURVE_STYLE('',#324,POSITIVE_LENGTH_MEASURE(1.0E-006),#325);
#220=LINE('',#326,#327);
#221=CURVE_STYLE('',#328,POSITIVE_LENGTH_MEASURE(1.0E-006),#329);
#222=CIRCLE('',#330,2.49999999999997);
#223=CURVE_STYLE('',#331,POSITIVE_LENGTH_MEASURE(1.0E-006),#332);
#224=LINE('',#333,#334);
#225=POINT_STYLE(' ',#335,POSITIVE_LENGTH_MEASURE(1.0E-006),#336);
#226=CARTESIAN_POINT('',(2.49999999999991,2.2199389718159E-014,-2.8421709430404E-014));
#227=SURFACE_STYLE_USAGE(.BOTH.,#337);
#228=CLOSED_SHELL('',(#80,#108,#116,#76,#94,#102,#84,#104,#86));
#229=PRODUCT_CONTEXT('',#46,'mechanical');
#230=PRODUCT_DEFINITION_FORMATION_WITH_SPECIFIED_SOURCE(' ','NONE',#131,.NOT_KNOWN.);
#231=CARTESIAN_POINT('',(0.0,0.0,0.0));
#232=DIRECTION('',(0.0,0.0,1.0));
#233=DIRECTION('',(1.0,0.0,0.0));
#234= (NAMED_UNIT(#139)LENGTH_UNIT()SI_UNIT(.MILLI.,.METRE.));
#235=DRAUGHTING_PRE_DEFINED_CURVE_FONT('continuous');
#236=COLOUR_RGB('',0.509803950786591,0.509803950786591,0.588235318660736);
#237=AXIS2_PLACEMENT_3D('',#339,#340,#341);
#238=PRE_DEFINED_MARKER('');
#239=COLOUR_RGB('',0.509803950786591,0.509803950786591,0.588235318660736);
#240=DRAUGHTING_PRE_DEFINED_CURVE_FONT('continuous');
#241=COLOUR_RGB('',0.509803950786591,0.509803950786591,0.588235318660736);
#242=AXIS2_PLACEMENT_3D('',#342,#343,#344);
#243=DRAUGHTING_PRE_DEFINED_CURVE_FONT('continuous');
#244=COLOUR_RGB('',0.509803950786591,0.509803950786591,0.588235318660736);
#245=CARTESIAN_POINT('',(1.07499999999995,2.12289903078128E-014,9.62065153937883));
#246=VECTOR('',#345,1.0);
#247=DRAUGHTING_PRE_DEFINED_CURVE_FONT('continuous');
#248=COLOUR_RGB('',0.509803950786591,0.509803950786591,0.588235318660736);
#249=CARTESIAN_POINT('',(2.14999999999995,2.13607366159068E-014,4.67499999999995));
#250=VECTOR('',#346,1.0);
#251=PRE_DEFINED_MARKER('');
#252=COLOUR_RGB('',0.509803950786591,0.509803950786591,0.588235318660736);
#253=DRAUGHTING_PRE_DEFINED_CURVE_FONT('continuous');
#254=COLOUR_RGB('',0.509803950786591,0.509803950786591,0.588235318660736);
#255=AXIS2_PLACEMENT_3D('',#347,#348,#349);
#256=DRAUGHTING_PRE_DEFINED_CURVE_FONT('continuous');
#257=COLOUR_RGB('',0.509803950786591,0.509803950786591,0.588235318660736);
#258=AXIS2_PLACEMENT_3D('',#350,#351,#352);
#259=SURFACE_SIDE_STYLE('',(#353));
#260=EDGE_LOOP('',(#354,#355,#356));
#261=AXIS2_PLACEMENT_3D('',#357,#358,#359);
#262=DRAUGHTING_PRE_DEFINED_CURVE_FONT('continuous');
#263=COLOUR_RGB('',0.509803950786591,0.509803950786591,0.588235318660736);
#264=AXIS2_PLACEMENT_3D('',#360,#361,#362);
#265=SURFACE_SIDE_STYLE('',(#363));
#266=EDGE_LOOP('',(#364,#365,#366));
#267=AXIS2_PLACEMENT_3D('',#367,#368,#369);
#268=DRAUGHTING_PRE_DEFINED_CURVE_FONT('continuous');
#269=COLOUR_RGB('',0.509803950786591,0.509803950786591,0.588235318660736);
#270=AXIS2_PLACEMENT_3D('',#370,#371,#372);
#271=SURFACE_SIDE_STYLE('',(#373));
#272=EDGE_LOOP('',(#374,#375,#376,#377));
#273=AXIS2_PLACEMENT_3D('',#378,#379,#380);
#274=SURFACE_SIDE_STYLE('',(#381));
#275=EDGE_LOOP('',(#382,#383,#384));
#276=AXIS2_PLACEMENT_3D('',#385,#386,#387);
#277=DRAUGHTING_PRE_DEFINED_CURVE_FONT('continuous');
#278=COLOUR_RGB('',0.509803950786591,0.509803950786591,0.588235318660736);
#279=CARTESIAN_POINT('',(-2.15000000000006,2.0833751383531E-014,4.67499999999995));
#280=VECTOR('',#388,1.0);
#281=PRE_DEFINED_MARKER('');
#282=COLOUR_RGB('',0.509803950786591,0.509803950786591,0.588235318660736);
#283=PRE_DEFINED_MARKER('');
#284=COLOUR_RGB('',0.509803950786591,0.509803950786591,0.588235318660736);
#285=SURFACE_SIDE_STYLE('',(#389));
#286=EDGE_LOOP('',(#390,#391,#392));
#287=AXIS2_PLACEMENT_3D('',#393,#394,#395);
#288=PRE_DEFINED_MARKER('');
#289=COLOUR_RGB('',0.509803950786591,0.509803950786591,0.588235318660736);
#290=DRAUGHTING_PRE_DEFINED_CURVE_FONT('continuous');
#291=COLOUR_RGB('',0.509803950786591,0.509803950786591,0.588235318660736);
#292=AXIS2_PLACEMENT_3D('',#396,#397,#398);
#293=DRAUGHTING_PRE_DEFINED_CURVE_FONT('continuous');
#294=COLOUR_RGB('',0.509803950786591,0.509803950786591,0.588235318660736);
#295=AXIS2_PLACEMENT_3D('',#399,#400,#401);
#296=SURFACE_SIDE_STYLE('',(#402));
#297=EDGE_LOOP('',(#403,#404));
#298=EDGE_LOOP('',(#405,#406));
#299=AXIS2_PLACEMENT_3D('',#407,#408,#409);
#300=SURFACE_SIDE_STYLE('',(#410));
#301=EDGE_LOOP('',(#411,#412,#413,#414));
#302=AXIS2_PLACEMENT_3D('',#415,#416,#417);
#303=DRAUGHTING_PRE_DEFINED_CURVE_FONT('continuous');
#304=COLOUR_RGB('',0.509803950786591,0.509803950786591,0.588235318660736);
#305=AXIS2_PLACEMENT_3D('',#418,#419,#420);
#306=SURFACE_SIDE_STYLE('',(#421));
#307=EDGE_LOOP('',(#422,#423,#424,#425));
#308=AXIS2_PLACEMENT_3D('',#426,#427,#428);
#309=PRE_DEFINED_MARKER('');
#310=COLOUR_RGB('',0.509803950786591,0.509803950786591,0.588235318660736);
#311=PRE_DEFINED_MARKER('');
#312=COLOUR_RGB('',0.509803950786591,0.509803950786591,0.588235318660736);
#313=DRAUGHTING_PRE_DEFINED_CURVE_FONT('continuous');
#314=COLOUR_RGB('',0.509803950786591,0.509803950786591,0.588235318660736);
#315=CARTESIAN_POINT('',(-2.32500000000005,2.08123043101203E-014,0.174999999999955));
#316=VECTOR('',#429,1.0);
#317=SURFACE_SIDE_STYLE('',(#430));
#318=EDGE_LOOP('',(#431,#432,#433,#434));
#319=AXIS2_PLACEMENT_3D('',#435,#436,#437);
#320=PRE_DEFINED_MARKER('');
#321=COLOUR_RGB('',0.509803950786591,0.509803950786591,0.588235318660736);
#322=PRE_DEFINED_MARKER('');
#323=COLOUR_RGB('',0.509803950786591,0.509803950786591,0.588235318660736);
#324=DRAUGHTING_PRE_DEFINED_CURVE_FONT('continuous');
#325=COLOUR_RGB('',0.509803950786591,0.509803950786591,0.588235318660736);
#326=CARTESIAN_POINT('',(2.32499999999993,2.13821836893174E-014,0.174999999999955));
#327=VECTOR('',#438,1.0);
#328=DRAUGHTING_PRE_DEFINED_CURVE_FONT('continuous');
#329=COLOUR_RGB('',0.509803950786591,0.509803950786591,0.588235318660736);
#330=AXIS2_PLACEMENT_3D('',#439,#440,#441);
#331=DRAUGHTING_PRE_DEFINED_CURVE_FONT('continuous');
#332=COLOUR_RGB('',0.509803950786591,0.509803950786591,0.588235318660736);
#333=CARTESIAN_POINT('',(-1.07500000000006,2.09654976916249E-014,9.62065153937883));
#334=VECTOR('',#442,1.0);
#335=PRE_DEFINED_MARKER('');
#336=COLOUR_RGB('',0.509803950786591,0.509803950786591,0.588235318660736);
#337=SURFACE_SIDE_STYLE('',(#443));
#339=CARTESIAN_POINT('',(-5.6843418860808E-014,2.10972439997189E-014,0.349999999999937));
#340=DIRECTION('',(0.0,0.0,-1.0));
#341=DIRECTION('',(1.0,9.40698214412202E-020,0.0));
#342=CARTESIAN_POINT('',(-6.19835355575036E-014,2.17095471766301E-014,7.99999999999998));
#343=DIRECTION('',(1.22460635382238E-016,-1.0,0.0));
#344=DIRECTION('',(0.0,0.0,1.0));
#345=DIRECTION('',(0.866025403784439,1.06135488059699E-016,-0.5));
#346=DIRECTION('',(-0.0,-0.0,-1.0));
#347=CARTESIAN_POINT('',(-5.6843418860808E-014,2.10972439997189E-014,0.349999999999937));
#348=DIRECTION('',(0.0,0.0,-1.0));
#349=DIRECTION('',(1.0,9.40698214412202E-020,0.0));
#350=CARTESIAN_POINT('',(-5.6843418860808E-014,2.10972439997189E-014,-1.4210854715202E-014));
#351=DIRECTION('',(0.0,0.0,-1.0));
#352=DIRECTION('',(1.0,9.40698214412202E-020,0.0));
#353=SURFACE_STYLE_FILL_AREA(#444);
#354=ORIENTED_EDGE('',*,*,#82,.F.);
#355=ORIENTED_EDGE('',*,*,#64,.F.);
#356=ORIENTED_EDGE('',*,*,#74,.F.);
#357=CARTESIAN_POINT('',(-6.19835355575036E-014,2.17095471766301E-014,7.99999999999998));
#358=DIRECTION('',(0.0,0.0,-1.0));
#359=DIRECTION('',(-1.0,0.0,0.0));
#360=CARTESIAN_POINT('',(-5.6843418860808E-014,2.10972439997189E-014,-1.4210854715202E-014));
#361=DIRECTION('',(0.0,0.0,-1.0));
#362=DIRECTION('',(1.0,9.40698214412202E-020,0.0));
#363=SURFACE_STYLE_FILL_AREA(#445);
#364=ORIENTED_EDGE('',*,*,#126,.T.);
#365=ORIENTED_EDGE('',*,*,#66,.T.);
#366=ORIENTED_EDGE('',*,*,#100,.T.);
#367=CARTESIAN_POINT('',(-5.6843418860808E-014,2.10972439997189E-014,9.62065153937883));
#368=DIRECTION('',(0.0,-0.0,-1.0));
#369=DIRECTION('',(1.0,9.40698214412202E-020,0.0));
#370=CARTESIAN_POINT('',(-6.19835355575036E-014,2.17095471766301E-014,7.99999999999998));
#371=DIRECTION('',(1.22460635382238E-016,-1.0,0.0));
#372=DIRECTION('',(0.0,0.0,1.0));
#373=SURFACE_STYLE_FILL_AREA(#446);
#374=ORIENTED_EDGE('',*,*,#122,.T.);
#375=ORIENTED_EDGE('',*,*,#124,.T.);
#376=ORIENTED_EDGE('',*,*,#114,.T.);
#377=ORIENTED_EDGE('',*,*,#60,.F.);
#378=CARTESIAN_POINT('',(-5.6843418860808E-014,2.10972439997189E-014,0.174999999999955));
#379=DIRECTION('',(0.0,-0.0,-1.0));
#380=DIRECTION('',(1.0,9.40698214412202E-020,0.0));
#381=SURFACE_STYLE_FILL_AREA(#447);
#382=ORIENTED_EDGE('',*,*,#126,.F.);
#383=ORIENTED_EDGE('',*,*,#106,.T.);
#384=ORIENTED_EDGE('',*,*,#66,.F.);
#385=CARTESIAN_POINT('',(-5.6843418860808E-014,2.10972439997189E-014,9.62065153937883));
#386=DIRECTION('',(0.0,-0.0,-1.0));
#387=DIRECTION('',(1.0,9.40698214412202E-020,0.0));
#388=DIRECTION('',(-0.0,-0.0,1.0));
#389=SURFACE_STYLE_FILL_AREA(#448);
#390=ORIENTED_EDGE('',*,*,#82,.T.);
#391=ORIENTED_EDGE('',*,*,#78,.F.);
#392=ORIENTED_EDGE('',*,*,#64,.T.);
#393=CARTESIAN_POINT('',(-6.19835355575036E-014,2.17095471766301E-014,7.99999999999998));
#394=DIRECTION('',(0.0,0.0,-1.0));
#395=DIRECTION('',(-1.0,0.0,0.0));
#396=CARTESIAN_POINT('',(-5.6843418860808E-014,2.10972439997189E-014,-2.8421709430404E-014));
#397=DIRECTION('',(0.0,0.0,-1.0));
#398=DIRECTION('',(1.0,9.40698214412202E-020,0.0));
#399=CARTESIAN_POINT('',(-5.6843418860808E-014,2.10972439997189E-014,8.99999999999997));
#400=DIRECTION('',(0.0,0.0,-1.0));
#401=DIRECTION('',(1.0,9.40698214412202E-020,0.0));
#402=SURFACE_STYLE_FILL_AREA(#449);
#403=ORIENTED_EDGE('',*,*,#124,.F.);
#404=ORIENTED_EDGE('',*,*,#98,.F.);
#405=ORIENTED_EDGE('',*,*,#78,.T.);
#406=ORIENTED_EDGE('',*,*,#74,.T.);
#407=CARTESIAN_POINT('',(4.24999999999993,2.2199389718159E-014,-2.1316282072803E-014));
#408=DIRECTION('',(0.0,0.0,-1.0));
#409=DIRECTION('',(-1.0,0.0,0.0));
#410=SURFACE_STYLE_FILL_AREA(#450);
#411=ORIENTED_EDGE('',*,*,#68,.T.);
#412=ORIENTED_EDGE('',*,*,#60,.T.);
#413=ORIENTED_EDGE('',*,*,#88,.T.);
#414=ORIENTED_EDGE('',*,*,#100,.F.);
#415=CARTESIAN_POINT('',(-5.6843418860808E-014,2.10972439997189E-014,4.67499999999995));
#416=DIRECTION('',(-0.0,-0.0,1.0));
#417=DIRECTION('',(1.0,9.40698214412202E-020,0.0));
#418=CARTESIAN_POINT('',(-5.6843418860808E-014,2.10972439997189E-014,8.99999999999997));
#419=DIRECTION('',(0.0,0.0,-1.0));
#420=DIRECTION('',(1.0,9.40698214412202E-020,0.0));
#421=SURFACE_STYLE_FILL_AREA(#451);
#422=ORIENTED_EDGE('',*,*,#68,.F.);
#423=ORIENTED_EDGE('',*,*,#106,.F.);
#424=ORIENTED_EDGE('',*,*,#88,.F.);
#425=ORIENTED_EDGE('',*,*,#72,.T.);
#426=CARTESIAN_POINT('',(-5.6843418860808E-014,2.10972439997189E-014,4.67499999999995));
#427=DIRECTION('',(-0.0,-0.0,1.0));
#428=DIRECTION('',(1.0,9.40698214412202E-020,0.0));
#429=DIRECTION('',(0.707106781186548,8.66592631158401E-017,0.707106781186547));
#430=SURFACE_STYLE_FILL_AREA(#452);
#431=ORIENTED_EDGE('',*,*,#122,.F.);
#432=ORIENTED_EDGE('',*,*,#72,.F.);
#433=ORIENTED_EDGE('',*,*,#114,.F.);
#434=ORIENTED_EDGE('',*,*,#98,.T.);
#435=CARTESIAN_POINT('',(-5.6843418860808E-014,2.10972439997189E-014,0.174999999999955));
#436=DIRECTION('',(0.0,-0.0,-1.0));
#437=DIRECTION('',(1.0,9.40698214412202E-020,0.0));
#438=DIRECTION('',(0.707106781186548,8.66592631158401E-017,-0.707106781186547));
#439=CARTESIAN_POINT('',(-5.6843418860808E-014,2.10972439997189E-014,-2.8421709430404E-014));
#440=DIRECTION('',(0.0,0.0,-1.0));
#441=DIRECTION('',(1.0,9.40698214412202E-020,0.0));
#442=DIRECTION('',(0.866025403784439,1.06135488059699E-016,0.5));
#443=SURFACE_STYLE_FILL_AREA(#453);
#444=FILL_AREA_STYLE('',(#454));
#445=FILL_AREA_STYLE('',(#455));
#446=FILL_AREA_STYLE('',(#456));
#447=FILL_AREA_STYLE('',(#457));
#448=FILL_AREA_STYLE('',(#458));
#449=FILL_AREA_STYLE('',(#459));
#450=FILL_AREA_STYLE('',(#460));
#451=FILL_AREA_STYLE('',(#461));
#452=FILL_AREA_STYLE('',(#462));
#453=FILL_AREA_STYLE('',(#463));
#454=FILL_AREA_STYLE_COLOUR('',#464);
#455=FILL_AREA_STYLE_COLOUR('',#465);
#456=FILL_AREA_STYLE_COLOUR('',#466);
#457=FILL_AREA_STYLE_COLOUR('',#467);
#458=FILL_AREA_STYLE_COLOUR('',#468);
#459=FILL_AREA_STYLE_COLOUR('',#469);
#460=FILL_AREA_STYLE_COLOUR('',#470);
#461=FILL_AREA_STYLE_COLOUR('',#471);
#462=FILL_AREA_STYLE_COLOUR('',#472);
#463=FILL_AREA_STYLE_COLOUR('',#473);
#464=COLOUR_RGB('',0.509803950786591,0.509803950786591,0.588235318660736);
#465=COLOUR_RGB('',0.509803950786591,0.509803950786591,0.588235318660736);
#466=COLOUR_RGB('',0.509803950786591,0.509803950786591,0.588235318660736);
#467=COLOUR_RGB('',0.509803950786591,0.509803950786591,0.588235318660736);
#468=COLOUR_RGB('',0.509803950786591,0.509803950786591,0.588235318660736);
#469=COLOUR_RGB('',0.509803950786591,0.509803950786591,0.588235318660736);
#470=COLOUR_RGB('',0.509803950786591,0.509803950786591,0.588235318660736);
#471=COLOUR_RGB('',0.509803950786591,0.509803950786591,0.588235318660736);
#472=COLOUR_RGB('',0.509803950786591,0.509803950786591,0.588235318660736);
#473=COLOUR_RGB('',0.509803950786591,0.509803950786591,0.588235318660736);
ENDSEC;
END-ISO-10303-21;
