ISO-10303-21;
HEADER;
FILE_DESCRIPTION(('STEP AP214'),'1');
FILE_NAME(' ','  ',('TraceParts'),('TraceParts S.A.'),'XStep 1.0',' ',' ');
FILE_SCHEMA(('automotive_design'));
ENDSEC;
DATA;
#1=MECHANICAL_DESIGN_GEOMETRIC_PRESENTATION_REPRESENTATION(' ',(#10,#11,#12,#13,#14,#15,#16,#17,#18,#19,#20,#21,#22,#23,#24,#25,#26,#27,#28,#29,#30,#31,#32,#33,#34,#35,#36,#37,#38,#39,#40,#41,#42,#43,#44,#45),#6);
#2=PRODUCT_DEFINITION_CONTEXT('',#46,'design');
#3=APPLICATION_PROTOCOL_DEFINITION('INTERNATIONAL STANDARD','automotive_design',1994,#46);
#4=PRODUCT_CATEGORY_RELATIONSHIP('NONE','NONE',#47,#48);
#5=SHAPE_DEFINITION_REPRESENTATION(#49,#50);
#6= (GEOMETRIC_REPRESENTATION_CONTEXT(3)GLOBAL_UNCERTAINTY_ASSIGNED_CONTEXT((#53))GLOBAL_UNIT_ASSIGNED_CONTEXT((#55,#56,#57))REPRESENTATION_CONTEXT('NONE','WORKSPACE'));
#10=STYLED_ITEM('',(#59),#60);
#11=STYLED_ITEM('',(#61),#62);
#12=STYLED_ITEM('',(#63),#64);
#13=STYLED_ITEM('',(#65),#66);
#14=STYLED_ITEM('',(#67),#68);
#15=STYLED_ITEM('',(#69),#70);
#16=STYLED_ITEM('',(#71),#72);
#17=STYLED_ITEM('',(#73),#74);
#18=STYLED_ITEM('',(#75),#76);
#19=STYLED_ITEM('',(#77),#78);
#20=STYLED_ITEM('',(#79),#80);
#21=STYLED_ITEM('',(#81),#82);
#22=STYLED_ITEM('',(#83),#84);
#23=STYLED_ITEM('',(#85),#86);
#24=STYLED_ITEM('',(#87),#88);
#25=STYLED_ITEM('',(#89),#90);
#26=STYLED_ITEM('',(#91),#92);
#27=STYLED_ITEM('',(#93),#94);
#28=STYLED_ITEM('',(#95),#96);
#29=STYLED_ITEM('',(#97),#98);
#30=STYLED_ITEM('',(#99),#100);
#31=STYLED_ITEM('',(#101),#102);
#32=STYLED_ITEM('',(#103),#104);
#33=STYLED_ITEM('',(#105),#106);
#34=STYLED_ITEM('',(#107),#108);
#35=STYLED_ITEM('',(#109),#110);
#36=STYLED_ITEM('',(#111),#112);
#37=STYLED_ITEM('',(#113),#114);
#38=STYLED_ITEM('',(#115),#116);
#39=STYLED_ITEM('',(#117),#118);
#40=STYLED_ITEM('',(#119),#120);
#41=STYLED_ITEM('',(#121),#122);
#42=STYLED_ITEM('',(#123),#124);
#43=STYLED_ITEM('',(#125),#126);
#44=STYLED_ITEM('',(#127),#128);
#45=STYLED_ITEM('',(#129),#130);
#46=APPLICATION_CONTEXT(' ');
#47=PRODUCT_CATEGORY('part','NONE');
#48=PRODUCT_RELATED_PRODUCT_CATEGORY('detail',' ',(#131));
#49=PRODUCT_DEFINITION_SHAPE('NONE','NONE',#132);
#50=ADVANCED_BREP_SHAPE_REPRESENTATION('1',(#84,#133),#6);
#53=UNCERTAINTY_MEASURE_WITH_UNIT(LENGTH_MEASURE(1.0E-006),#55,'','');
#55= (CONVERSION_BASED_UNIT('MILLIMETRE',#136)LENGTH_UNIT()NAMED_UNIT(#139));
#56= (NAMED_UNIT(#141)PLANE_ANGLE_UNIT()SI_UNIT($,.RADIAN.));
#57= (NAMED_UNIT(#141)SOLID_ANGLE_UNIT()SI_UNIT($,.STERADIAN.));
#59=PRESENTATION_STYLE_ASSIGNMENT((#147));
#60=EDGE_CURVE('',#70,#88,#148,.T.);
#61=PRESENTATION_STYLE_ASSIGNMENT((#149));
#62=EDGE_CURVE('',#104,#88,#150,.T.);
#63=PRESENTATION_STYLE_ASSIGNMENT((#151));
#64=VERTEX_POINT('',#152);
#65=PRESENTATION_STYLE_ASSIGNMENT((#153));
#66=EDGE_CURVE('',#64,#98,#154,.T.);
#67=PRESENTATION_STYLE_ASSIGNMENT((#155));
#68=ADVANCED_FACE('',(#156),#157,.F.);
#69=PRESENTATION_STYLE_ASSIGNMENT((#158));
#70=VERTEX_POINT('',#159);
#71=PRESENTATION_STYLE_ASSIGNMENT((#160));
#72=EDGE_CURVE('',#102,#70,#161,.T.);
#73=PRESENTATION_STYLE_ASSIGNMENT((#162));
#74=ADVANCED_FACE('',(#163),#164,.T.);
#75=PRESENTATION_STYLE_ASSIGNMENT((#165));
#76=EDGE_CURVE('',#108,#64,#166,.T.);
#77=PRESENTATION_STYLE_ASSIGNMENT((#167));
#78=EDGE_CURVE('',#90,#114,#168,.T.);
#79=PRESENTATION_STYLE_ASSIGNMENT((#169));
#80=EDGE_CURVE('',#108,#104,#170,.T.);
#81=PRESENTATION_STYLE_ASSIGNMENT((#171));
#82=ADVANCED_FACE('',(#172),#173,.F.);
#83=PRESENTATION_STYLE_ASSIGNMENT((#174));
#84=MANIFOLD_SOLID_BREP('1',#175);
#85=PRESENTATION_STYLE_ASSIGNMENT((#176));
#86=ADVANCED_FACE('',(#177,#178),#179,.T.);
#87=PRESENTATION_STYLE_ASSIGNMENT((#180));
#88=VERTEX_POINT('',#181);
#89=PRESENTATION_STYLE_ASSIGNMENT((#182));
#90=VERTEX_POINT('',#183);
#91=PRESENTATION_STYLE_ASSIGNMENT((#184));
#92=EDGE_CURVE('',#114,#90,#185,.T.);
#93=PRESENTATION_STYLE_ASSIGNMENT((#186));
#94=EDGE_CURVE('',#90,#122,#187,.T.);
#95=PRESENTATION_STYLE_ASSIGNMENT((#188));
#96=ADVANCED_FACE('',(#189),#190,.F.);
#97=PRESENTATION_STYLE_ASSIGNMENT((#191));
#98=VERTEX_POINT('',#192);
#99=PRESENTATION_STYLE_ASSIGNMENT((#193));
#100=EDGE_CURVE('',#104,#102,#194,.T.);
#101=PRESENTATION_STYLE_ASSIGNMENT((#195));
#102=VERTEX_POINT('',#196);
#103=PRESENTATION_STYLE_ASSIGNMENT((#197));
#104=VERTEX_POINT('',#198);
#105=PRESENTATION_STYLE_ASSIGNMENT((#199));
#106=ADVANCED_FACE('',(#200),#201,.T.);
#107=PRESENTATION_STYLE_ASSIGNMENT((#202));
#108=VERTEX_POINT('',#203);
#109=PRESENTATION_STYLE_ASSIGNMENT((#204));
#110=EDGE_CURVE('',#122,#114,#205,.T.);
#111=PRESENTATION_STYLE_ASSIGNMENT((#206));
#112=EDGE_CURVE('',#88,#104,#207,.T.);
#113=PRESENTATION_STYLE_ASSIGNMENT((#208));
#114=VERTEX_POINT('',#209);
#115=PRESENTATION_STYLE_ASSIGNMENT((#210));
#116=ADVANCED_FACE('',(#211),#212,.F.);
#117=PRESENTATION_STYLE_ASSIGNMENT((#213));
#118=EDGE_CURVE('',#64,#108,#214,.T.);
#119=PRESENTATION_STYLE_ASSIGNMENT((#215));
#120=ADVANCED_FACE('',(#216),#217,.F.);
#121=PRESENTATION_STYLE_ASSIGNMENT((#218));
#122=VERTEX_POINT('',#219);
#123=PRESENTATION_STYLE_ASSIGNMENT((#220));
#124=EDGE_CURVE('',#88,#64,#221,.T.);
#125=PRESENTATION_STYLE_ASSIGNMENT((#222));
#126=EDGE_CURVE('',#98,#108,#223,.T.);
#127=PRESENTATION_STYLE_ASSIGNMENT((#224));
#128=ADVANCED_FACE('',(#225),#226,.F.);
#129=PRESENTATION_STYLE_ASSIGNMENT((#227));
#130=EDGE_CURVE('',#70,#102,#228,.T.);
#131=PRODUCT('1','1','PART-1-DESC',(#229));
#132=PRODUCT_DEFINITION('NONE','NONE',#230,#2);
#133=AXIS2_PLACEMENT_3D('',#231,#232,#233);
#136=LENGTH_MEASURE_WITH_UNIT(LENGTH_MEASURE(1.0),#234);
#139=DIMENSIONAL_EXPONENTS(1.0,0.0,0.0,0.0,0.0,0.0,0.0);
#141=DIMENSIONAL_EXPONENTS(0.0,0.0,0.0,0.0,0.0,0.0,0.0);
#147=CURVE_STYLE('',#235,POSITIVE_LENGTH_MEASURE(1.0E-006),#236);
#148=LINE('',#237,#238);
#149=CURVE_STYLE('',#239,POSITIVE_LENGTH_MEASURE(1.0E-006),#240);
#150=CIRCLE('',#241,5.15000000000001);
#151=POINT_STYLE(' ',#242,POSITIVE_LENGTH_MEASURE(1.0E-006),#243);
#152=CARTESIAN_POINT('',(-5.15000000000006,2.04660736949927E-014,20.1999999999999));
#153=CURVE_STYLE('',#244,POSITIVE_LENGTH_MEASURE(1.0E-006),#245);
#154=LINE('',#246,#247);
#155=SURFACE_STYLE_USAGE(.BOTH.,#248);
#156=FACE_OUTER_BOUND('',#249,.T.);
#157=CONICAL_SURFACE('',#250,2.575,1.04719755119659);
#158=POINT_STYLE(' ',#251,POSITIVE_LENGTH_MEASURE(1.0E-006),#252);
#159=CARTESIAN_POINT('',(-6.00000000000003,2.03618999553777E-014,-2.8421709430404E-014));
#160=CURVE_STYLE('',#253,POSITIVE_LENGTH_MEASURE(1.0E-006),#254);
#161=CIRCLE('',#255,5.99999999999997);
#162=SURFACE_STYLE_USAGE(.BOTH.,#256);
#163=FACE_OUTER_BOUND('',#257,.T.);
#164=SPHERICAL_SURFACE('',#258,25.0);
#165=CURVE_STYLE('',#259,POSITIVE_LENGTH_MEASURE(1.0E-006),#260);
#166=CIRCLE('',#261,5.15000000000001);
#167=CURVE_STYLE('',#262,POSITIVE_LENGTH_MEASURE(1.0E-006),#263);
#168=CIRCLE('',#264,13.5646599662505);
#169=CURVE_STYLE('',#265,POSITIVE_LENGTH_MEASURE(1.0E-006),#266);
#170=LINE('',#267,#268);
#171=SURFACE_STYLE_USAGE(.BOTH.,#269);
#172=FACE_OUTER_BOUND('',#270,.T.);
#173=CONICAL_SURFACE('',#271,2.575,1.04719755119659);
#174=SURFACE_STYLE_USAGE(.BOTH.,#272);
#175=CLOSED_SHELL('',(#82,#116,#96,#106,#74,#86,#128,#120,#68));
#176=SURFACE_STYLE_USAGE(.BOTH.,#273);
#177=FACE_BOUND('',#274,.T.);
#178=FACE_OUTER_BOUND('',#275,.T.);
#179=PLANE('',#276);
#180=POINT_STYLE(' ',#277,POSITIVE_LENGTH_MEASURE(1.0E-006),#278);
#181=CARTESIAN_POINT('',(-5.15000000000006,2.04660736949927E-014,0.849999999999952));
#182=POINT_STYLE(' ',#279,POSITIVE_LENGTH_MEASURE(1.0E-006),#280);
#183=CARTESIAN_POINT('',(13.5646599662505,2.39138386135104E-014,-1.4210854715202E-014));
#184=CURVE_STYLE('',#281,POSITIVE_LENGTH_MEASURE(1.0E-006),#282);
#185=CIRCLE('',#283,13.5646599662505);
#186=CURVE_STYLE('',#284,POSITIVE_LENGTH_MEASURE(1.0E-006),#285);
#187=CIRCLE('',#286,25.0);
#188=SURFACE_STYLE_USAGE(.BOTH.,#287);
#189=FACE_OUTER_BOUND('',#288,.T.);
#190=CONICAL_SURFACE('',#289,5.57499999999999,0.78539816339744);
#191=POINT_STYLE(' ',#290,POSITIVE_LENGTH_MEASURE(1.0E-006),#291);
#192=CARTESIAN_POINT('',(-5.6843418860808E-014,2.24949267930819E-014,23.1733538863265));
#193=CURVE_STYLE('',#292,POSITIVE_LENGTH_MEASURE(1.0E-006),#293);
#194=LINE('',#294,#295);
#195=POINT_STYLE(' ',#296,POSITIVE_LENGTH_MEASURE(1.0E-006),#297);
#196=CARTESIAN_POINT('',(5.99999999999991,2.39138386135104E-014,-2.8421709430404E-014));
#197=POINT_STYLE(' ',#298,POSITIVE_LENGTH_MEASURE(1.0E-006),#299);
#198=CARTESIAN_POINT('',(5.14999999999995,2.38617928434729E-014,0.849999999999952));
#199=SURFACE_STYLE_USAGE(.BOTH.,#300);
#200=FACE_OUTER_BOUND('',#301,.T.);
#201=SPHERICAL_SURFACE('',#302,25.0);
#202=POINT_STYLE(' ',#303,POSITIVE_LENGTH_MEASURE(1.0E-006),#304);
#203=CARTESIAN_POINT('',(5.14999999999995,2.26769861961498E-014,20.1999999999999));
#204=CURVE_STYLE('',#305,POSITIVE_LENGTH_MEASURE(1.0E-006),#306);
#205=CIRCLE('',#307,25.0);
#206=CURVE_STYLE('',#308,POSITIVE_LENGTH_MEASURE(1.0E-006),#309);
#207=CIRCLE('',#310,5.15000000000001);
#208=POINT_STYLE(' ',#311,POSITIVE_LENGTH_MEASURE(1.0E-006),#312);
#209=CARTESIAN_POINT('',(-13.5646599662506,2.09668650637858E-014,-1.4210854715202E-014));
#210=SURFACE_STYLE_USAGE(.BOTH.,#313);
#211=FACE_OUTER_BOUND('',#314,.T.);
#212=CYLINDRICAL_SURFACE('',#315,5.15000000000001);
#213=CURVE_STYLE('',#316,POSITIVE_LENGTH_MEASURE(1.0E-006),#317);
#214=CIRCLE('',#318,5.15000000000001);
#215=SURFACE_STYLE_USAGE(.BOTH.,#319);
#216=FACE_OUTER_BOUND('',#320,.T.);
#217=CYLINDRICAL_SURFACE('',#321,5.15000000000001);
#218=POINT_STYLE(' ',#322,POSITIVE_LENGTH_MEASURE(1.0E-006),#323);
#219=CARTESIAN_POINT('',(-5.6843418860808E-014,2.10972439997189E-014,46.0));
#220=CURVE_STYLE('',#324,POSITIVE_LENGTH_MEASURE(1.0E-006),#325);
#221=LINE('',#326,#327);
#222=CURVE_STYLE('',#328,POSITIVE_LENGTH_MEASURE(1.0E-006),#329);
#223=LINE('',#330,#331);
#224=SURFACE_STYLE_USAGE(.BOTH.,#332);
#225=FACE_OUTER_BOUND('',#333,.T.);
#226=CONICAL_SURFACE('',#334,5.57499999999999,0.78539816339744);
#227=CURVE_STYLE('',#335,POSITIVE_LENGTH_MEASURE(1.0E-006),#336);
#228=CIRCLE('',#337,5.99999999999997);
#229=PRODUCT_CONTEXT('',#46,'mechanical');
#230=PRODUCT_DEFINITION_FORMATION_WITH_SPECIFIED_SOURCE(' ','NONE',#131,.NOT_KNOWN.);
#231=CARTESIAN_POINT('',(0.0,0.0,0.0));
#232=DIRECTION('',(0.0,0.0,1.0));
#233=DIRECTION('',(1.0,0.0,0.0));
#234= (NAMED_UNIT(#139)LENGTH_UNIT()SI_UNIT(.MILLI.,.METRE.));
#235=DRAUGHTING_PRE_DEFINED_CURVE_FONT('continuous');
#236=COLOUR_RGB('',0.509803950786591,0.509803950786591,0.588235318660736);
#237=CARTESIAN_POINT('',(-5.57500000000005,2.04139868251852E-014,0.424999999999962));
#238=VECTOR('',#339,1.0);
#239=DRAUGHTING_PRE_DEFINED_CURVE_FONT('continuous');
#240=COLOUR_RGB('',0.509803950786591,0.509803950786591,0.588235318660736);
#241=AXIS2_PLACEMENT_3D('',#340,#341,#342);
#242=PRE_DEFINED_MARKER('');
#243=COLOUR_RGB('',0.509803950786591,0.509803950786591,0.588235318660736);
#244=DRAUGHTING_PRE_DEFINED_CURVE_FONT('continuous');
#245=COLOUR_RGB('',0.509803950786591,0.509803950786591,0.588235318660736);
#246=CARTESIAN_POINT('',(-2.57500000000006,2.07816588473558E-014,21.6866769431632));
#247=VECTOR('',#343,1.0);
#248=SURFACE_SIDE_STYLE('',(#344));
#249=EDGE_LOOP('',(#345,#346,#347));
#250=AXIS2_PLACEMENT_3D('',#348,#349,#350);
#251=PRE_DEFINED_MARKER('');
#252=COLOUR_RGB('',0.509803950786591,0.509803950786591,0.588235318660736);
#253=DRAUGHTING_PRE_DEFINED_CURVE_FONT('continuous');
#254=COLOUR_RGB('',0.509803950786591,0.509803950786591,0.588235318660736);
#255=AXIS2_PLACEMENT_3D('',#351,#352,#353);
#256=SURFACE_SIDE_STYLE('',(#354));
#257=EDGE_LOOP('',(#355,#356,#357));
#258=AXIS2_PLACEMENT_3D('',#358,#359,#360);
#259=DRAUGHTING_PRE_DEFINED_CURVE_FONT('continuous');
#260=COLOUR_RGB('',0.509803950786591,0.509803950786591,0.588235318660736);
#261=AXIS2_PLACEMENT_3D('',#361,#362,#363);
#262=DRAUGHTING_PRE_DEFINED_CURVE_FONT('continuous');
#263=COLOUR_RGB('',0.509803950786591,0.509803950786591,0.588235318660736);
#264=AXIS2_PLACEMENT_3D('',#364,#365,#366);
#265=DRAUGHTING_PRE_DEFINED_CURVE_FONT('continuous');
#266=COLOUR_RGB('',0.509803950786591,0.509803950786591,0.588235318660736);
#267=CARTESIAN_POINT('',(5.14999999999995,2.17284143044451E-014,10.5249999999999));
#268=VECTOR('',#367,1.0);
#269=SURFACE_SIDE_STYLE('',(#368));
#270=EDGE_LOOP('',(#369,#370,#371));
#271=AXIS2_PLACEMENT_3D('',#372,#373,#374);
#272=SURFACE_SIDE_STYLE('',(#375));
#273=SURFACE_SIDE_STYLE('',(#376));
#274=EDGE_LOOP('',(#377,#378));
#275=EDGE_LOOP('',(#379,#380));
#276=AXIS2_PLACEMENT_3D('',#381,#382,#383);
#277=PRE_DEFINED_MARKER('');
#278=COLOUR_RGB('',0.509803950786591,0.509803950786591,0.588235318660736);
#279=PRE_DEFINED_MARKER('');
#280=COLOUR_RGB('',0.509803950786591,0.509803950786591,0.588235318660736);
#281=DRAUGHTING_PRE_DEFINED_CURVE_FONT('continuous');
#282=COLOUR_RGB('',0.509803950786591,0.509803950786591,0.588235318660736);
#283=AXIS2_PLACEMENT_3D('',#384,#385,#386);
#284=DRAUGHTING_PRE_DEFINED_CURVE_FONT('continuous');
#285=COLOUR_RGB('',0.509803950786591,0.509803950786591,0.588235318660736);
#286=AXIS2_PLACEMENT_3D('',#387,#388,#389);
#287=SURFACE_SIDE_STYLE('',(#390));
#288=EDGE_LOOP('',(#391,#392,#393,#394));
#289=AXIS2_PLACEMENT_3D('',#395,#396,#397);
#290=PRE_DEFINED_MARKER('');
#291=COLOUR_RGB('',0.509803950786591,0.509803950786591,0.588235318660736);
#292=DRAUGHTING_PRE_DEFINED_CURVE_FONT('continuous');
#293=COLOUR_RGB('',0.509803950786591,0.509803950786591,0.588235318660736);
#294=CARTESIAN_POINT('',(5.57499999999993,2.17805011742526E-014,0.424999999999962));
#295=VECTOR('',#398,1.0);
#296=PRE_DEFINED_MARKER('');
#297=COLOUR_RGB('',0.509803950786591,0.509803950786591,0.588235318660736);
#298=PRE_DEFINED_MARKER('');
#299=COLOUR_RGB('',0.509803950786591,0.509803950786591,0.588235318660736);
#300=SURFACE_SIDE_STYLE('',(#399));
#301=EDGE_LOOP('',(#400,#401,#402));
#302=AXIS2_PLACEMENT_3D('',#403,#404,#405);
#303=PRE_DEFINED_MARKER('');
#304=COLOUR_RGB('',0.509803950786591,0.509803950786591,0.588235318660736);
#305=DRAUGHTING_PRE_DEFINED_CURVE_FONT('continuous');
#306=COLOUR_RGB('',0.509803950786591,0.509803950786591,0.588235318660736);
#307=AXIS2_PLACEMENT_3D('',#406,#407,#408);
#308=DRAUGHTING_PRE_DEFINED_CURVE_FONT('continuous');
#309=COLOUR_RGB('',0.509803950786591,0.509803950786591,0.588235318660736);
#310=AXIS2_PLACEMENT_3D('',#409,#410,#411);
#311=PRE_DEFINED_MARKER('');
#312=COLOUR_RGB('',0.509803950786591,0.509803950786591,0.588235318660736);
#313=SURFACE_SIDE_STYLE('',(#412));
#314=EDGE_LOOP('',(#413,#414,#415,#416));
#315=AXIS2_PLACEMENT_3D('',#417,#418,#419);
#316=DRAUGHTING_PRE_DEFINED_CURVE_FONT('continuous');
#317=COLOUR_RGB('',0.509803950786591,0.509803950786591,0.588235318660736);
#318=AXIS2_PLACEMENT_3D('',#420,#421,#422);
#319=SURFACE_SIDE_STYLE('',(#423));
#320=EDGE_LOOP('',(#424,#425,#426,#427));
#321=AXIS2_PLACEMENT_3D('',#428,#429,#430);
#322=PRE_DEFINED_MARKER('');
#323=COLOUR_RGB('',0.509803950786591,0.509803950786591,0.588235318660736);
#324=DRAUGHTING_PRE_DEFINED_CURVE_FONT('continuous');
#325=COLOUR_RGB('',0.509803950786591,0.509803950786591,0.588235318660736);
#326=CARTESIAN_POINT('',(-5.15000000000006,2.04660736949927E-014,10.5249999999999));
#327=VECTOR('',#431,1.0);
#328=DRAUGHTING_PRE_DEFINED_CURVE_FONT('continuous');
#329=COLOUR_RGB('',0.509803950786591,0.509803950786591,0.588235318660736);
#330=CARTESIAN_POINT('',(2.57499999999995,2.1412829152082E-014,21.6866769431632));
#331=VECTOR('',#432,1.0);
#332=SURFACE_SIDE_STYLE('',(#433));
#333=EDGE_LOOP('',(#434,#435,#436,#437));
#334=AXIS2_PLACEMENT_3D('',#438,#439,#440);
#335=DRAUGHTING_PRE_DEFINED_CURVE_FONT('continuous');
#336=COLOUR_RGB('',0.509803950786591,0.509803950786591,0.588235318660736);
#337=AXIS2_PLACEMENT_3D('',#441,#442,#443);
#339=DIRECTION('',(0.707106781186542,8.66611267098018E-017,0.707106781186553));
#340=CARTESIAN_POINT('',(-5.6843418860808E-014,2.10972439997189E-014,0.849999999999952));
#341=DIRECTION('',(0.0,0.0,-1.0));
#342=DIRECTION('',(1.0,9.67053412983025E-020,0.0));
#343=DIRECTION('',(0.866025403784436,1.06137770486847E-016,0.500000000000004));
#344=SURFACE_STYLE_FILL_AREA(#444);
#345=ORIENTED_EDGE('',*,*,#66,.F.);
#346=ORIENTED_EDGE('',*,*,#118,.T.);
#347=ORIENTED_EDGE('',*,*,#126,.F.);
#348=CARTESIAN_POINT('',(-5.6843418860808E-014,2.10972439997189E-014,21.6866769431632));
#349=DIRECTION('',(0.0,-0.0,-1.0));
#350=DIRECTION('',(1.0,9.67053412983025E-020,0.0));
#351=CARTESIAN_POINT('',(-5.6843418860808E-014,2.10972439997189E-014,-2.8421709430404E-014));
#352=DIRECTION('',(0.0,0.0,-1.0));
#353=DIRECTION('',(1.0,9.67053412983025E-020,0.0));
#354=SURFACE_STYLE_FILL_AREA(#445);
#355=ORIENTED_EDGE('',*,*,#110,.T.);
#356=ORIENTED_EDGE('',*,*,#78,.F.);
#357=ORIENTED_EDGE('',*,*,#94,.T.);
#358=CARTESIAN_POINT('',(-5.52934162812221E-014,2.26280019419969E-014,21.0));
#359=DIRECTION('',(0.0,0.0,-1.0));
#360=DIRECTION('',(-1.0,0.0,0.0));
#361=CARTESIAN_POINT('',(-5.6843418860808E-014,2.10972439997189E-014,20.1999999999999));
#362=DIRECTION('',(0.0,0.0,-1.0));
#363=DIRECTION('',(1.0,9.67053412983025E-020,0.0));
#364=CARTESIAN_POINT('',(-5.6843418860808E-014,2.10972439997189E-014,-1.4210854715202E-014));
#365=DIRECTION('',(0.0,0.0,-1.0));
#366=DIRECTION('',(1.0,9.67053412983025E-020,0.0));
#367=DIRECTION('',(-0.0,-0.0,-1.0));
#368=SURFACE_STYLE_FILL_AREA(#446);
#369=ORIENTED_EDGE('',*,*,#66,.T.);
#370=ORIENTED_EDGE('',*,*,#126,.T.);
#371=ORIENTED_EDGE('',*,*,#76,.T.);
#372=CARTESIAN_POINT('',(-5.6843418860808E-014,2.10972439997189E-014,21.6866769431632));
#373=DIRECTION('',(0.0,-0.0,-1.0));
#374=DIRECTION('',(1.0,9.67053412983025E-020,0.0));
#375=SURFACE_STYLE_FILL_AREA(#447);
#376=SURFACE_STYLE_FILL_AREA(#448);
#377=ORIENTED_EDGE('',*,*,#72,.F.);
#378=ORIENTED_EDGE('',*,*,#130,.F.);
#379=ORIENTED_EDGE('',*,*,#78,.T.);
#380=ORIENTED_EDGE('',*,*,#92,.T.);
#381=CARTESIAN_POINT('',(9.78232998312519,2.39138386135104E-014,-2.1316282072803E-014));
#382=DIRECTION('',(0.0,0.0,-1.0));
#383=DIRECTION('',(-1.0,0.0,0.0));
#384=CARTESIAN_POINT('',(-5.6843418860808E-014,2.10972439997189E-014,-1.4210854715202E-014));
#385=DIRECTION('',(0.0,0.0,-1.0));
#386=DIRECTION('',(1.0,9.67053412983025E-020,0.0));
#387=CARTESIAN_POINT('',(-5.52934162812221E-014,2.26280019419969E-014,21.0));
#388=DIRECTION('',(1.22460635382238E-016,-1.0,0.0));
#389=DIRECTION('',(0.0,0.0,1.0));
#390=SURFACE_STYLE_FILL_AREA(#449);
#391=ORIENTED_EDGE('',*,*,#100,.F.);
#392=ORIENTED_EDGE('',*,*,#112,.F.);
#393=ORIENTED_EDGE('',*,*,#60,.F.);
#394=ORIENTED_EDGE('',*,*,#130,.T.);
#395=CARTESIAN_POINT('',(-5.6843418860808E-014,2.10972439997189E-014,0.424999999999962));
#396=DIRECTION('',(0.0,-0.0,-1.0));
#397=DIRECTION('',(1.0,9.67053412983025E-020,0.0));
#398=DIRECTION('',(0.707106781186542,8.66611267098018E-017,-0.707106781186553));
#399=SURFACE_STYLE_FILL_AREA(#450);
#400=ORIENTED_EDGE('',*,*,#110,.F.);
#401=ORIENTED_EDGE('',*,*,#94,.F.);
#402=ORIENTED_EDGE('',*,*,#92,.F.);
#403=CARTESIAN_POINT('',(-5.52934162812221E-014,2.26280019419969E-014,21.0));
#404=DIRECTION('',(0.0,0.0,-1.0));
#405=DIRECTION('',(-1.0,0.0,0.0));
#406=CARTESIAN_POINT('',(-5.52934162812221E-014,2.26280019419969E-014,21.0));
#407=DIRECTION('',(1.22460635382238E-016,-1.0,0.0));
#408=DIRECTION('',(0.0,0.0,1.0));
#409=CARTESIAN_POINT('',(-5.6843418860808E-014,2.10972439997189E-014,0.849999999999952));
#410=DIRECTION('',(0.0,0.0,-1.0));
#411=DIRECTION('',(1.0,9.67053412983025E-020,0.0));
#412=SURFACE_STYLE_FILL_AREA(#451);
#413=ORIENTED_EDGE('',*,*,#80,.F.);
#414=ORIENTED_EDGE('',*,*,#118,.F.);
#415=ORIENTED_EDGE('',*,*,#124,.F.);
#416=ORIENTED_EDGE('',*,*,#112,.T.);
#417=CARTESIAN_POINT('',(-5.6843418860808E-014,2.10972439997189E-014,10.5249999999999));
#418=DIRECTION('',(-0.0,-0.0,1.0));
#419=DIRECTION('',(1.0,9.67053412983025E-020,0.0));
#420=CARTESIAN_POINT('',(-5.6843418860808E-014,2.10972439997189E-014,20.1999999999999));
#421=DIRECTION('',(0.0,0.0,-1.0));
#422=DIRECTION('',(1.0,9.67053412983025E-020,0.0));
#423=SURFACE_STYLE_FILL_AREA(#452);
#424=ORIENTED_EDGE('',*,*,#80,.T.);
#425=ORIENTED_EDGE('',*,*,#62,.T.);
#426=ORIENTED_EDGE('',*,*,#124,.T.);
#427=ORIENTED_EDGE('',*,*,#76,.F.);
#428=CARTESIAN_POINT('',(-5.6843418860808E-014,2.10972439997189E-014,10.5249999999999));
#429=DIRECTION('',(-0.0,-0.0,1.0));
#430=DIRECTION('',(1.0,9.67053412983025E-020,0.0));
#431=DIRECTION('',(-0.0,-0.0,1.0));
#432=DIRECTION('',(0.866025403784436,1.06137770486847E-016,-0.500000000000004));
#433=SURFACE_STYLE_FILL_AREA(#453);
#434=ORIENTED_EDGE('',*,*,#100,.T.);
#435=ORIENTED_EDGE('',*,*,#72,.T.);
#436=ORIENTED_EDGE('',*,*,#60,.T.);
#437=ORIENTED_EDGE('',*,*,#62,.F.);
#438=CARTESIAN_POINT('',(-5.6843418860808E-014,2.10972439997189E-014,0.424999999999962));
#439=DIRECTION('',(0.0,-0.0,-1.0));
#440=DIRECTION('',(1.0,9.67053412983025E-020,0.0));
#441=CARTESIAN_POINT('',(-5.6843418860808E-014,2.10972439997189E-014,-2.8421709430404E-014));
#442=DIRECTION('',(0.0,0.0,-1.0));
#443=DIRECTION('',(1.0,9.67053412983025E-020,0.0));
#444=FILL_AREA_STYLE('',(#454));
#445=FILL_AREA_STYLE('',(#455));
#446=FILL_AREA_STYLE('',(#456));
#447=FILL_AREA_STYLE('',(#457));
#448=FILL_AREA_STYLE('',(#458));
#449=FILL_AREA_STYLE('',(#459));
#450=FILL_AREA_STYLE('',(#460));
#451=FILL_AREA_STYLE('',(#461));
#452=FILL_AREA_STYLE('',(#462));
#453=FILL_AREA_STYLE('',(#463));
#454=FILL_AREA_STYLE_COLOUR('',#464);
#455=FILL_AREA_STYLE_COLOUR('',#465);
#456=FILL_AREA_STYLE_COLOUR('',#466);
#457=FILL_AREA_STYLE_COLOUR('',#467);
#458=FILL_AREA_STYLE_COLOUR('',#468);
#459=FILL_AREA_STYLE_COLOUR('',#469);
#460=FILL_AREA_STYLE_COLOUR('',#470);
#461=FILL_AREA_STYLE_COLOUR('',#471);
#462=FILL_AREA_STYLE_COLOUR('',#472);
#463=FILL_AREA_STYLE_COLOUR('',#473);
#464=COLOUR_RGB('',0.509803950786591,0.509803950786591,0.588235318660736);
#465=COLOUR_RGB('',0.509803950786591,0.509803950786591,0.588235318660736);
#466=COLOUR_RGB('',0.509803950786591,0.509803950786591,0.588235318660736);
#467=COLOUR_RGB('',0.509803950786591,0.509803950786591,0.588235318660736);
#468=COLOUR_RGB('',0.509803950786591,0.509803950786591,0.588235318660736);
#469=COLOUR_RGB('',0.509803950786591,0.509803950786591,0.588235318660736);
#470=COLOUR_RGB('',0.509803950786591,0.509803950786591,0.588235318660736);
#471=COLOUR_RGB('',0.509803950786591,0.509803950786591,0.588235318660736);
#472=COLOUR_RGB('',0.509803950786591,0.509803950786591,0.588235318660736);
#473=COLOUR_RGB('',0.509803950786591,0.509803950786591,0.588235318660736);
ENDSEC;
END-ISO-10303-21;
