ISO-10303-21;
HEADER;
FILE_DESCRIPTION(('STEP AP214'),'1');
FILE_NAME(' ','  ',('TraceParts'),('TraceParts S.A.'),'XStep 1.0',' ',' ');
FILE_SCHEMA(('automotive_design'));
ENDSEC;
DATA;
#1=MECHANICAL_DESIGN_GEOMETRIC_PRESENTATION_REPRESENTATION(' ',(#10,#11,#12,#13,#14,#15,#16,#17,#18,#19,#20,#21,#22,#23,#24,#25,#26,#27,#28,#29,#30,#31,#32,#33,#34,#35,#36,#37,#38,#39,#40,#41,#42,#43,#44,#45),#6);
#2=PRODUCT_DEFINITION_CONTEXT('',#46,'design');
#3=APPLICATION_PROTOCOL_DEFINITION('INTERNATIONAL STANDARD','automotive_design',1994,#46);
#4=PRODUCT_CATEGORY_RELATIONSHIP('NONE','NONE',#47,#48);
#5=SHAPE_DEFINITION_REPRESENTATION(#49,#50);
#6= (GEOMETRIC_REPRESENTATION_CONTEXT(3)GLOBAL_UNCERTAINTY_ASSIGNED_CONTEXT((#53))GLOBAL_UNIT_ASSIGNED_CONTEXT((#55,#56,#57))REPRESENTATION_CONTEXT('NONE','WORKSPACE'));
#10=STYLED_ITEM('',(#59),#60);
#11=STYLED_ITEM('',(#61),#62);
#12=STYLED_ITEM('',(#63),#64);
#13=STYLED_ITEM('',(#65),#66);
#14=STYLED_ITEM('',(#67),#68);
#15=STYLED_ITEM('',(#69),#70);
#16=STYLED_ITEM('',(#71),#72);
#17=STYLED_ITEM('',(#73),#74);
#18=STYLED_ITEM('',(#75),#76);
#19=STYLED_ITEM('',(#77),#78);
#20=STYLED_ITEM('',(#79),#80);
#21=STYLED_ITEM('',(#81),#82);
#22=STYLED_ITEM('',(#83),#84);
#23=STYLED_ITEM('',(#85),#86);
#24=STYLED_ITEM('',(#87),#88);
#25=STYLED_ITEM('',(#89),#90);
#26=STYLED_ITEM('',(#91),#92);
#27=STYLED_ITEM('',(#93),#94);
#28=STYLED_ITEM('',(#95),#96);
#29=STYLED_ITEM('',(#97),#98);
#30=STYLED_ITEM('',(#99),#100);
#31=STYLED_ITEM('',(#101),#102);
#32=STYLED_ITEM('',(#103),#104);
#33=STYLED_ITEM('',(#105),#106);
#34=STYLED_ITEM('',(#107),#108);
#35=STYLED_ITEM('',(#109),#110);
#36=STYLED_ITEM('',(#111),#112);
#37=STYLED_ITEM('',(#113),#114);
#38=STYLED_ITEM('',(#115),#116);
#39=STYLED_ITEM('',(#117),#118);
#40=STYLED_ITEM('',(#119),#120);
#41=STYLED_ITEM('',(#121),#122);
#42=STYLED_ITEM('',(#123),#124);
#43=STYLED_ITEM('',(#125),#126);
#44=STYLED_ITEM('',(#127),#128);
#45=STYLED_ITEM('',(#129),#130);
#46=APPLICATION_CONTEXT(' ');
#47=PRODUCT_CATEGORY('part','NONE');
#48=PRODUCT_RELATED_PRODUCT_CATEGORY('detail',' ',(#131));
#49=PRODUCT_DEFINITION_SHAPE('NONE','NONE',#132);
#50=ADVANCED_BREP_SHAPE_REPRESENTATION('1',(#112,#133),#6);
#53=UNCERTAINTY_MEASURE_WITH_UNIT(LENGTH_MEASURE(1.0E-006),#55,'','');
#55= (CONVERSION_BASED_UNIT('MILLIMETRE',#136)LENGTH_UNIT()NAMED_UNIT(#139));
#56= (NAMED_UNIT(#141)PLANE_ANGLE_UNIT()SI_UNIT($,.RADIAN.));
#57= (NAMED_UNIT(#141)SOLID_ANGLE_UNIT()SI_UNIT($,.STERADIAN.));
#59=PRESENTATION_STYLE_ASSIGNMENT((#147));
#60=VERTEX_POINT('',#148);
#61=PRESENTATION_STYLE_ASSIGNMENT((#149));
#62=EDGE_CURVE('',#86,#110,#150,.T.);
#63=PRESENTATION_STYLE_ASSIGNMENT((#151));
#64=EDGE_CURVE('',#110,#86,#152,.T.);
#65=PRESENTATION_STYLE_ASSIGNMENT((#153));
#66=EDGE_CURVE('',#98,#60,#154,.T.);
#67=PRESENTATION_STYLE_ASSIGNMENT((#155));
#68=ADVANCED_FACE('',(#156),#157,.T.);
#69=PRESENTATION_STYLE_ASSIGNMENT((#158));
#70=VERTEX_POINT('',#159);
#71=PRESENTATION_STYLE_ASSIGNMENT((#160));
#72=EDGE_CURVE('',#78,#116,#161,.T.);
#73=PRESENTATION_STYLE_ASSIGNMENT((#162));
#74=EDGE_CURVE('',#84,#86,#163,.T.);
#75=PRESENTATION_STYLE_ASSIGNMENT((#164));
#76=EDGE_CURVE('',#70,#102,#165,.T.);
#77=PRESENTATION_STYLE_ASSIGNMENT((#166));
#78=VERTEX_POINT('',#167);
#79=PRESENTATION_STYLE_ASSIGNMENT((#168));
#80=ADVANCED_FACE('',(#169),#170,.F.);
#81=PRESENTATION_STYLE_ASSIGNMENT((#171));
#82=ADVANCED_FACE('',(#172),#173,.F.);
#83=PRESENTATION_STYLE_ASSIGNMENT((#174));
#84=VERTEX_POINT('',#175);
#85=PRESENTATION_STYLE_ASSIGNMENT((#176));
#86=VERTEX_POINT('',#177);
#87=PRESENTATION_STYLE_ASSIGNMENT((#178));
#88=ADVANCED_FACE('',(#179),#180,.F.);
#89=PRESENTATION_STYLE_ASSIGNMENT((#181));
#90=EDGE_CURVE('',#84,#116,#182,.T.);
#91=PRESENTATION_STYLE_ASSIGNMENT((#183));
#92=EDGE_CURVE('',#78,#98,#184,.T.);
#93=PRESENTATION_STYLE_ASSIGNMENT((#185));
#94=EDGE_CURVE('',#102,#126,#186,.T.);
#95=PRESENTATION_STYLE_ASSIGNMENT((#187));
#96=ADVANCED_FACE('',(#188),#189,.T.);
#97=PRESENTATION_STYLE_ASSIGNMENT((#190));
#98=VERTEX_POINT('',#191);
#99=PRESENTATION_STYLE_ASSIGNMENT((#192));
#100=ADVANCED_FACE('',(#193),#194,.F.);
#101=PRESENTATION_STYLE_ASSIGNMENT((#195));
#102=VERTEX_POINT('',#196);
#103=PRESENTATION_STYLE_ASSIGNMENT((#197));
#104=EDGE_CURVE('',#98,#78,#198,.T.);
#105=PRESENTATION_STYLE_ASSIGNMENT((#199));
#106=EDGE_CURVE('',#84,#98,#200,.T.);
#107=PRESENTATION_STYLE_ASSIGNMENT((#201));
#108=EDGE_CURVE('',#116,#84,#202,.T.);
#109=PRESENTATION_STYLE_ASSIGNMENT((#203));
#110=VERTEX_POINT('',#204);
#111=PRESENTATION_STYLE_ASSIGNMENT((#205));
#112=MANIFOLD_SOLID_BREP('1',#206);
#113=PRESENTATION_STYLE_ASSIGNMENT((#207));
#114=EDGE_CURVE('',#126,#70,#208,.T.);
#115=PRESENTATION_STYLE_ASSIGNMENT((#209));
#116=VERTEX_POINT('',#210);
#117=PRESENTATION_STYLE_ASSIGNMENT((#211));
#118=EDGE_CURVE('',#60,#78,#212,.T.);
#119=PRESENTATION_STYLE_ASSIGNMENT((#213));
#120=ADVANCED_FACE('',(#214,#215),#216,.T.);
#121=PRESENTATION_STYLE_ASSIGNMENT((#217));
#122=ADVANCED_FACE('',(#218),#219,.F.);
#123=PRESENTATION_STYLE_ASSIGNMENT((#220));
#124=ADVANCED_FACE('',(#221),#222,.F.);
#125=PRESENTATION_STYLE_ASSIGNMENT((#223));
#126=VERTEX_POINT('',#224);
#127=PRESENTATION_STYLE_ASSIGNMENT((#225));
#128=EDGE_CURVE('',#110,#116,#226,.T.);
#129=PRESENTATION_STYLE_ASSIGNMENT((#227));
#130=EDGE_CURVE('',#126,#102,#228,.T.);
#131=PRODUCT('1','1','PART-1-DESC',(#229));
#132=PRODUCT_DEFINITION('NONE','NONE',#230,#2);
#133=AXIS2_PLACEMENT_3D('',#231,#232,#233);
#136=LENGTH_MEASURE_WITH_UNIT(LENGTH_MEASURE(1.0),#234);
#139=DIMENSIONAL_EXPONENTS(1.0,0.0,0.0,0.0,0.0,0.0,0.0);
#141=DIMENSIONAL_EXPONENTS(0.0,0.0,0.0,0.0,0.0,0.0,0.0);
#147=POINT_STYLE(' ',#235,POSITIVE_LENGTH_MEASURE(1.0E-006),#236);
#148=CARTESIAN_POINT('',(-5.6843418860808E-014,2.12436755380669E-014,12.6085125168441));
#149=CURVE_STYLE('',#237,POSITIVE_LENGTH_MEASURE(1.0E-006),#238);
#150=CIRCLE('',#239,1.99999999999997);
#151=CURVE_STYLE('',#240,POSITIVE_LENGTH_MEASURE(1.0E-006),#241);
#152=CIRCLE('',#242,1.99999999999997);
#153=CURVE_STYLE('',#243,POSITIVE_LENGTH_MEASURE(1.0E-006),#244);
#154=LINE('',#245,#246);
#155=SURFACE_STYLE_USAGE(.BOTH.,#247);
#156=FACE_OUTER_BOUND('',#248,.T.);
#157=SPHERICAL_SURFACE('',#249,8.00000000000001);
#158=POINT_STYLE(' ',#250,POSITIVE_LENGTH_MEASURE(1.0E-006),#251);
#159=CARTESIAN_POINT('',(-5.6843418860808E-014,2.10972439997189E-014,15.0));
#160=CURVE_STYLE('',#252,POSITIVE_LENGTH_MEASURE(1.0E-006),#253);
#161=LINE('',#254,#255);
#162=CURVE_STYLE('',#256,POSITIVE_LENGTH_MEASURE(1.0E-006),#257);
#163=LINE('',#258,#259);
#164=CURVE_STYLE('',#260,POSITIVE_LENGTH_MEASURE(1.0E-006),#261);
#165=CIRCLE('',#262,8.00000000000001);
#166=POINT_STYLE(' ',#263,POSITIVE_LENGTH_MEASURE(1.0E-006),#264);
#167=CARTESIAN_POINT('',(1.91999999999993,2.13115501116378E-014,11.5));
#168=SURFACE_STYLE_USAGE(.BOTH.,#265);
#169=FACE_OUTER_BOUND('',#266,.T.);
#170=CONICAL_SURFACE('',#267,1.95999999999999,0.00888865478933437);
#171=SURFACE_STYLE_USAGE(.BOTH.,#268);
#172=FACE_OUTER_BOUND('',#269,.T.);
#173=CYLINDRICAL_SURFACE('',#270,1.91999999999999);
#174=POINT_STYLE(' ',#271,POSITIVE_LENGTH_MEASURE(1.0E-006),#272);
#175=CARTESIAN_POINT('',(-1.92000000000004,-1.59065188861746E-013,8.99999999999997));
#176=POINT_STYLE(' ',#273,POSITIVE_LENGTH_MEASURE(1.0E-006),#274);
#177=CARTESIAN_POINT('',(-2.00000000000003,-1.66559754269443E-013,-3.19744231092045E-014));
#178=SURFACE_STYLE_USAGE(.BOTH.,#275);
#179=FACE_OUTER_BOUND('',#276,.T.);
#180=CONICAL_SURFACE('',#277,0.959999999999994,1.04719755119659);
#181=CURVE_STYLE('',#278,POSITIVE_LENGTH_MEASURE(1.0E-006),#279);
#182=CIRCLE('',#280,1.91999999999999);
#183=CURVE_STYLE('',#281,POSITIVE_LENGTH_MEASURE(1.0E-006),#282);
#184=CIRCLE('',#283,1.91999999999999);
#185=CURVE_STYLE('',#284,POSITIVE_LENGTH_MEASURE(1.0E-006),#285);
#186=CIRCLE('',#286,3.87298334620742);
#187=SURFACE_STYLE_USAGE(.BOTH.,#287);
#188=FACE_OUTER_BOUND('',#288,.T.);
#189=SPHERICAL_SURFACE('',#289,8.00000000000001);
#190=POINT_STYLE(' ',#290,POSITIVE_LENGTH_MEASURE(1.0E-006),#291);
#191=CARTESIAN_POINT('',(-1.92000000000004,2.08619289780328E-014,11.5));
#192=SURFACE_STYLE_USAGE(.BOTH.,#292);
#193=FACE_OUTER_BOUND('',#293,.T.);
#194=CONICAL_SURFACE('',#294,0.959999999999994,1.04719755119659);
#195=POINT_STYLE(' ',#295,POSITIVE_LENGTH_MEASURE(1.0E-006),#296);
#196=CARTESIAN_POINT('',(-3.87298334620747,2.11127985398465E-014,-4.08562073062058E-014));
#197=CURVE_STYLE('',#297,POSITIVE_LENGTH_MEASURE(1.0E-006),#298);
#198=CIRCLE('',#299,1.91999999999999);
#199=CURVE_STYLE('',#300,POSITIVE_LENGTH_MEASURE(1.0E-006),#301);
#200=LINE('',#302,#303);
#201=CURVE_STYLE('',#304,POSITIVE_LENGTH_MEASURE(1.0E-006),#305);
#202=CIRCLE('',#306,1.91999999999999);
#203=POINT_STYLE(' ',#307,POSITIVE_LENGTH_MEASURE(1.0E-006),#308);
#204=CARTESIAN_POINT('',(1.99999999999991,2.20156987650857E-014,-3.19744231092045E-014));
#205=SURFACE_STYLE_USAGE(.BOTH.,#309);
#206=CLOSED_SHELL('',(#100,#124,#68,#122,#80,#96,#120,#82,#88));
#207=CURVE_STYLE('',#310,POSITIVE_LENGTH_MEASURE(1.0E-006),#311);
#208=CIRCLE('',#312,8.00000000000001);
#209=POINT_STYLE(' ',#313,POSITIVE_LENGTH_MEASURE(1.0E-006),#314);
#210=CARTESIAN_POINT('',(1.91999999999996,2.10253312908217E-014,8.99999999999997));
#211=CURVE_STYLE('',#315,POSITIVE_LENGTH_MEASURE(1.0E-006),#316);
#212=LINE('',#317,#318);
#213=SURFACE_STYLE_USAGE(.BOTH.,#319);
#214=FACE_BOUND('',#320,.T.);
#215=FACE_OUTER_BOUND('',#321,.T.);
#216=PLANE('',#322);
#217=SURFACE_STYLE_USAGE(.BOTH.,#323);
#218=FACE_OUTER_BOUND('',#324,.T.);
#219=CONICAL_SURFACE('',#325,1.95999999999999,0.00888865478933437);
#220=SURFACE_STYLE_USAGE(.BOTH.,#326);
#221=FACE_OUTER_BOUND('',#327,.T.);
#222=CYLINDRICAL_SURFACE('',#328,1.91999999999999);
#223=POINT_STYLE(' ',#329,POSITIVE_LENGTH_MEASURE(1.0E-006),#330);
#224=CARTESIAN_POINT('',(3.87298334620736,2.20156987650857E-014,-4.08562073062058E-014));
#225=CURVE_STYLE('',#331,POSITIVE_LENGTH_MEASURE(1.0E-006),#332);
#226=LINE('',#333,#334);
#227=CURVE_STYLE('',#335,POSITIVE_LENGTH_MEASURE(1.0E-006),#336);
#228=CIRCLE('',#337,3.87298334620742);
#229=PRODUCT_CONTEXT('',#46,'mechanical');
#230=PRODUCT_DEFINITION_FORMATION_WITH_SPECIFIED_SOURCE(' ','NONE',#131,.NOT_KNOWN.);
#231=CARTESIAN_POINT('',(0.0,0.0,0.0));
#232=DIRECTION('',(0.0,0.0,1.0));
#233=DIRECTION('',(1.0,0.0,0.0));
#234= (NAMED_UNIT(#139)LENGTH_UNIT()SI_UNIT(.MILLI.,.METRE.));
#235=PRE_DEFINED_MARKER('');
#236=COLOUR_RGB('',0.509803950786591,0.509803950786591,0.588235318660736);
#237=DRAUGHTING_PRE_DEFINED_CURVE_FONT('continuous');
#238=COLOUR_RGB('',0.509803950786591,0.509803950786591,0.588235318660736);
#239=AXIS2_PLACEMENT_3D('',#339,#340,#341);
#240=DRAUGHTING_PRE_DEFINED_CURVE_FONT('continuous');
#241=COLOUR_RGB('',0.509803950786591,0.509803950786591,0.588235318660736);
#242=AXIS2_PLACEMENT_3D('',#342,#343,#344);
#243=DRAUGHTING_PRE_DEFINED_CURVE_FONT('continuous');
#244=COLOUR_RGB('',0.509803950786591,0.509803950786591,0.588235318660736);
#245=CARTESIAN_POINT('',(-0.960000000000051,2.09795864888758E-014,12.054256258422));
#246=VECTOR('',#345,1.0);
#247=SURFACE_SIDE_STYLE('',(#346));
#248=EDGE_LOOP('',(#347,#348,#349));
#249=AXIS2_PLACEMENT_3D('',#350,#351,#352);
#250=PRE_DEFINED_MARKER('');
#251=COLOUR_RGB('',0.509803950786591,0.509803950786591,0.588235318660736);
#252=DRAUGHTING_PRE_DEFINED_CURVE_FONT('continuous');
#253=COLOUR_RGB('',0.509803950786591,0.509803950786591,0.588235318660736);
#254=CARTESIAN_POINT('',(1.91999999999993,2.1332559021405E-014,10.25));
#255=VECTOR('',#353,1.0);
#256=DRAUGHTING_PRE_DEFINED_CURVE_FONT('continuous');
#257=COLOUR_RGB('',0.509803950786591,0.509803950786591,0.588235318660736);
#258=CARTESIAN_POINT('',(-1.96000000000002,-1.62812471565593E-013,4.49999999999997));
#259=VECTOR('',#354,1.0);
#260=DRAUGHTING_PRE_DEFINED_CURVE_FONT('continuous');
#261=COLOUR_RGB('',0.509803950786591,0.509803950786591,0.588235318660736);
#262=AXIS2_PLACEMENT_3D('',#355,#356,#357);
#263=PRE_DEFINED_MARKER('');
#264=COLOUR_RGB('',0.509803950786591,0.509803950786591,0.588235318660736);
#265=SURFACE_SIDE_STYLE('',(#358));
#266=EDGE_LOOP('',(#359,#360,#361,#362));
#267=AXIS2_PLACEMENT_3D('',#363,#364,#365);
#268=SURFACE_SIDE_STYLE('',(#366));
#269=EDGE_LOOP('',(#367,#368,#369,#370));
#270=AXIS2_PLACEMENT_3D('',#371,#372,#373);
#271=PRE_DEFINED_MARKER('');
#272=COLOUR_RGB('',0.509803950786591,0.509803950786591,0.588235318660736);
#273=PRE_DEFINED_MARKER('');
#274=COLOUR_RGB('',0.509803950786591,0.509803950786591,0.588235318660736);
#275=SURFACE_SIDE_STYLE('',(#374));
#276=EDGE_LOOP('',(#375,#376,#377));
#277=AXIS2_PLACEMENT_3D('',#378,#379,#380);
#278=DRAUGHTING_PRE_DEFINED_CURVE_FONT('continuous');
#279=COLOUR_RGB('',0.509803950786591,0.509803950786591,0.588235318660736);
#280=AXIS2_PLACEMENT_3D('',#381,#382,#383);
#281=DRAUGHTING_PRE_DEFINED_CURVE_FONT('continuous');
#282=COLOUR_RGB('',0.509803950786591,0.509803950786591,0.588235318660736);
#283=AXIS2_PLACEMENT_3D('',#384,#385,#386);
#284=DRAUGHTING_PRE_DEFINED_CURVE_FONT('continuous');
#285=COLOUR_RGB('',0.509803950786591,0.509803950786591,0.588235318660736);
#286=AXIS2_PLACEMENT_3D('',#387,#388,#389);
#287=SURFACE_SIDE_STYLE('',(#390));
#288=EDGE_LOOP('',(#391,#392,#393));
#289=AXIS2_PLACEMENT_3D('',#394,#395,#396);
#290=PRE_DEFINED_MARKER('');
#291=COLOUR_RGB('',0.509803950786591,0.509803950786591,0.588235318660736);
#292=SURFACE_SIDE_STYLE('',(#397));
#293=EDGE_LOOP('',(#398,#399,#400));
#294=AXIS2_PLACEMENT_3D('',#401,#402,#403);
#295=PRE_DEFINED_MARKER('');
#296=COLOUR_RGB('',0.509803950786591,0.509803950786591,0.588235318660736);
#297=DRAUGHTING_PRE_DEFINED_CURVE_FONT('continuous');
#298=COLOUR_RGB('',0.509803950786591,0.509803950786591,0.588235318660736);
#299=AXIS2_PLACEMENT_3D('',#404,#405,#406);
#300=DRAUGHTING_PRE_DEFINED_CURVE_FONT('continuous');
#301=COLOUR_RGB('',0.509803950786591,0.509803950786591,0.588235318660736);
#302=CARTESIAN_POINT('',(-1.92000000000004,2.08619289780328E-014,10.25));
#303=VECTOR('',#407,1.0);
#304=DRAUGHTING_PRE_DEFINED_CURVE_FONT('continuous');
#305=COLOUR_RGB('',0.509803950786591,0.509803950786591,0.588235318660736);
#306=AXIS2_PLACEMENT_3D('',#408,#409,#410);
#307=PRE_DEFINED_MARKER('');
#308=COLOUR_RGB('',0.509803950786591,0.509803950786591,0.588235318660736);
#309=SURFACE_SIDE_STYLE('',(#411));
#310=DRAUGHTING_PRE_DEFINED_CURVE_FONT('continuous');
#311=COLOUR_RGB('',0.509803950786591,0.509803950786591,0.588235318660736);
#312=AXIS2_PLACEMENT_3D('',#412,#413,#414);
#313=PRE_DEFINED_MARKER('');
#314=COLOUR_RGB('',0.509803950786591,0.509803950786591,0.588235318660736);
#315=DRAUGHTING_PRE_DEFINED_CURVE_FONT('continuous');
#316=COLOUR_RGB('',0.509803950786591,0.509803950786591,0.588235318660736);
#317=CARTESIAN_POINT('',(0.959999999999937,2.12149015105619E-014,12.054256258422));
#318=VECTOR('',#415,1.0);
#319=SURFACE_SIDE_STYLE('',(#416));
#320=EDGE_LOOP('',(#417,#418));
#321=EDGE_LOOP('',(#419,#420));
#322=AXIS2_PLACEMENT_3D('',#421,#422,#423);
#323=SURFACE_SIDE_STYLE('',(#424));
#324=EDGE_LOOP('',(#425,#426,#427,#428));
#325=AXIS2_PLACEMENT_3D('',#429,#430,#431);
#326=SURFACE_SIDE_STYLE('',(#432));
#327=EDGE_LOOP('',(#433,#434,#435,#436));
#328=AXIS2_PLACEMENT_3D('',#437,#438,#439);
#329=PRE_DEFINED_MARKER('');
#330=COLOUR_RGB('',0.509803950786591,0.509803950786591,0.588235318660736);
#331=DRAUGHTING_PRE_DEFINED_CURVE_FONT('continuous');
#332=COLOUR_RGB('',0.509803950786591,0.509803950786591,0.588235318660736);
#333=CARTESIAN_POINT('',(1.95999999999997,2.04421233411639E-013,4.49999999999997));
#334=VECTOR('',#440,1.0);
#335=DRAUGHTING_PRE_DEFINED_CURVE_FONT('continuous');
#336=COLOUR_RGB('',0.509803950786591,0.509803950786591,0.588235318660736);
#337=AXIS2_PLACEMENT_3D('',#441,#442,#443);
#339=CARTESIAN_POINT('',(-5.6843418860808E-014,2.10972439997189E-014,-3.19744231092045E-014));
#340=DIRECTION('',(0.0,0.0,-1.0));
#341=DIRECTION('',(1.0,9.92717459391437E-020,0.0));
#342=CARTESIAN_POINT('',(-5.6843418860808E-014,2.10972439997189E-014,-3.19744231092045E-014));
#343=DIRECTION('',(0.0,0.0,-1.0));
#344=DIRECTION('',(1.0,9.92717459391437E-020,0.0));
#345=DIRECTION('',(0.866025403784433,1.06139993058463E-016,0.50000000000001));
#346=SURFACE_STYLE_FILL_AREA(#444);
#347=ORIENTED_EDGE('',*,*,#76,.F.);
#348=ORIENTED_EDGE('',*,*,#114,.F.);
#349=ORIENTED_EDGE('',*,*,#94,.F.);
#350=CARTESIAN_POINT('',(-5.29847770596664E-014,2.15870865412478E-014,6.99999999999997));
#351=DIRECTION('',(0.0,0.0,-1.0));
#352=DIRECTION('',(-1.0,0.0,0.0));
#353=DIRECTION('',(-0.0,-0.0,-1.0));
#354=DIRECTION('',(-0.00888853774371795,-8.32696593738655E-016,-0.999960496168113));
#355=CARTESIAN_POINT('',(-5.29847770596664E-014,2.15870865412478E-014,6.99999999999997));
#356=DIRECTION('',(1.22460635382238E-016,-1.0,0.0));
#357=DIRECTION('',(0.0,0.0,1.0));
#358=SURFACE_STYLE_FILL_AREA(#445);
#359=ORIENTED_EDGE('',*,*,#128,.T.);
#360=ORIENTED_EDGE('',*,*,#90,.F.);
#361=ORIENTED_EDGE('',*,*,#74,.T.);
#362=ORIENTED_EDGE('',*,*,#62,.T.);
#363=CARTESIAN_POINT('',(-2.8421709430404E-014,2.0804380923023E-014,4.49999999999997));
#364=DIRECTION('',(0.0,-0.0,-1.0));
#365=DIRECTION('',(1.0,9.35596069608509E-014,0.0));
#366=SURFACE_STYLE_FILL_AREA(#446);
#367=ORIENTED_EDGE('',*,*,#72,.T.);
#368=ORIENTED_EDGE('',*,*,#108,.T.);
#369=ORIENTED_EDGE('',*,*,#106,.T.);
#370=ORIENTED_EDGE('',*,*,#92,.F.);
#371=CARTESIAN_POINT('',(-5.6843418860808E-014,2.10972439997189E-014,5.78999999999996));
#372=DIRECTION('',(-0.0,-0.0,1.0));
#373=DIRECTION('',(1.0,9.92717459391437E-020,0.0));
#374=SURFACE_STYLE_FILL_AREA(#447);
#375=ORIENTED_EDGE('',*,*,#66,.F.);
#376=ORIENTED_EDGE('',*,*,#104,.T.);
#377=ORIENTED_EDGE('',*,*,#118,.F.);
#378=CARTESIAN_POINT('',(-5.6843418860808E-014,2.10972439997189E-014,12.054256258422));
#379=DIRECTION('',(0.0,-0.0,-1.0));
#380=DIRECTION('',(1.0,9.92717459391437E-020,0.0));
#381=CARTESIAN_POINT('',(-5.6843418860808E-014,2.10972439997189E-014,8.99999999999997));
#382=DIRECTION('',(0.0,0.0,-1.0));
#383=DIRECTION('',(1.0,9.92717459391437E-020,0.0));
#384=CARTESIAN_POINT('',(-5.6843418860808E-014,2.10972439997189E-014,11.5));
#385=DIRECTION('',(0.0,0.0,-1.0));
#386=DIRECTION('',(1.0,9.92717459391437E-020,0.0));
#387=CARTESIAN_POINT('',(-5.6843418860808E-014,2.10972439997189E-014,-4.08562073062058E-014));
#388=DIRECTION('',(0.0,0.0,-1.0));
#389=DIRECTION('',(1.0,9.92717459391437E-020,0.0));
#390=SURFACE_STYLE_FILL_AREA(#448);
#391=ORIENTED_EDGE('',*,*,#76,.T.);
#392=ORIENTED_EDGE('',*,*,#130,.F.);
#393=ORIENTED_EDGE('',*,*,#114,.T.);
#394=CARTESIAN_POINT('',(-5.29847770596664E-014,2.15870865412478E-014,6.99999999999997));
#395=DIRECTION('',(0.0,0.0,-1.0));
#396=DIRECTION('',(-1.0,0.0,0.0));
#397=SURFACE_STYLE_FILL_AREA(#449);
#398=ORIENTED_EDGE('',*,*,#66,.T.);
#399=ORIENTED_EDGE('',*,*,#118,.T.);
#400=ORIENTED_EDGE('',*,*,#92,.T.);
#401=CARTESIAN_POINT('',(-5.6843418860808E-014,2.10972439997189E-014,12.054256258422));
#402=DIRECTION('',(0.0,-0.0,-1.0));
#403=DIRECTION('',(1.0,9.92717459391437E-020,0.0));
#404=CARTESIAN_POINT('',(-5.6843418860808E-014,2.10972439997189E-014,11.5));
#405=DIRECTION('',(0.0,0.0,-1.0));
#406=DIRECTION('',(1.0,9.92717459391437E-020,0.0));
#407=DIRECTION('',(-0.0,-0.0,1.0));
#408=CARTESIAN_POINT('',(-5.6843418860808E-014,2.10972439997189E-014,8.99999999999997));
#409=DIRECTION('',(0.0,0.0,-1.0));
#410=DIRECTION('',(1.0,9.92717459391437E-020,0.0));
#411=SURFACE_STYLE_FILL_AREA(#450);
#412=CARTESIAN_POINT('',(-5.29847770596664E-014,2.15870865412478E-014,6.99999999999997));
#413=DIRECTION('',(1.22460635382238E-016,-1.0,0.0));
#414=DIRECTION('',(0.0,0.0,1.0));
#415=DIRECTION('',(0.866025403784433,1.06139993058463E-016,-0.50000000000001));
#416=SURFACE_STYLE_FILL_AREA(#451);
#417=ORIENTED_EDGE('',*,*,#64,.F.);
#418=ORIENTED_EDGE('',*,*,#62,.F.);
#419=ORIENTED_EDGE('',*,*,#130,.T.);
#420=ORIENTED_EDGE('',*,*,#94,.T.);
#421=CARTESIAN_POINT('',(2.93649167310364,2.20156987650857E-014,-3.5527136788005E-014));
#422=DIRECTION('',(0.0,0.0,-1.0));
#423=DIRECTION('',(-1.0,0.0,0.0));
#424=SURFACE_STYLE_FILL_AREA(#452);
#425=ORIENTED_EDGE('',*,*,#128,.F.);
#426=ORIENTED_EDGE('',*,*,#64,.T.);
#427=ORIENTED_EDGE('',*,*,#74,.F.);
#428=ORIENTED_EDGE('',*,*,#108,.F.);
#429=CARTESIAN_POINT('',(-2.8421709430404E-014,2.0804380923023E-014,4.49999999999997));
#430=DIRECTION('',(0.0,-0.0,-1.0));
#431=DIRECTION('',(1.0,9.35596069608509E-014,0.0));
#432=SURFACE_STYLE_FILL_AREA(#453);
#433=ORIENTED_EDGE('',*,*,#72,.F.);
#434=ORIENTED_EDGE('',*,*,#104,.F.);
#435=ORIENTED_EDGE('',*,*,#106,.F.);
#436=ORIENTED_EDGE('',*,*,#90,.T.);
#437=CARTESIAN_POINT('',(-5.6843418860808E-014,2.10972439997189E-014,5.78999999999996));
#438=DIRECTION('',(-0.0,-0.0,1.0));
#439=DIRECTION('',(1.0,9.92717459391437E-020,0.0));
#440=DIRECTION('',(-0.00888853774371795,-8.32696593738655E-016,0.999960496168113));
#441=CARTESIAN_POINT('',(-5.6843418860808E-014,2.10972439997189E-014,-4.08562073062058E-014));
#442=DIRECTION('',(0.0,0.0,-1.0));
#443=DIRECTION('',(1.0,9.92717459391437E-020,0.0));
#444=FILL_AREA_STYLE('',(#454));
#445=FILL_AREA_STYLE('',(#455));
#446=FILL_AREA_STYLE('',(#456));
#447=FILL_AREA_STYLE('',(#457));
#448=FILL_AREA_STYLE('',(#458));
#449=FILL_AREA_STYLE('',(#459));
#450=FILL_AREA_STYLE('',(#460));
#451=FILL_AREA_STYLE('',(#461));
#452=FILL_AREA_STYLE('',(#462));
#453=FILL_AREA_STYLE('',(#463));
#454=FILL_AREA_STYLE_COLOUR('',#464);
#455=FILL_AREA_STYLE_COLOUR('',#465);
#456=FILL_AREA_STYLE_COLOUR('',#466);
#457=FILL_AREA_STYLE_COLOUR('',#467);
#458=FILL_AREA_STYLE_COLOUR('',#468);
#459=FILL_AREA_STYLE_COLOUR('',#469);
#460=FILL_AREA_STYLE_COLOUR('',#470);
#461=FILL_AREA_STYLE_COLOUR('',#471);
#462=FILL_AREA_STYLE_COLOUR('',#472);
#463=FILL_AREA_STYLE_COLOUR('',#473);
#464=COLOUR_RGB('',0.509803950786591,0.509803950786591,0.588235318660736);
#465=COLOUR_RGB('',0.509803950786591,0.509803950786591,0.588235318660736);
#466=COLOUR_RGB('',0.509803950786591,0.509803950786591,0.588235318660736);
#467=COLOUR_RGB('',0.509803950786591,0.509803950786591,0.588235318660736);
#468=COLOUR_RGB('',0.509803950786591,0.509803950786591,0.588235318660736);
#469=COLOUR_RGB('',0.509803950786591,0.509803950786591,0.588235318660736);
#470=COLOUR_RGB('',0.509803950786591,0.509803950786591,0.588235318660736);
#471=COLOUR_RGB('',0.509803950786591,0.509803950786591,0.588235318660736);
#472=COLOUR_RGB('',0.509803950786591,0.509803950786591,0.588235318660736);
#473=COLOUR_RGB('',0.509803950786591,0.509803950786591,0.588235318660736);
ENDSEC;
END-ISO-10303-21;
