ISO-10303-21;
HEADER;
FILE_DESCRIPTION(('STEP AP214'),'1');
FILE_NAME(' ','  ',('TraceParts'),('TraceParts S.A.'),'XStep 1.0',' ',' ');
FILE_SCHEMA(('automotive_design'));
ENDSEC;
DATA;
#1=MECHANICAL_DESIGN_GEOMETRIC_PRESENTATION_REPRESENTATION(' ',(#10,#11,#12,#13,#14,#15,#16,#17,#18,#19,#20,#21,#22,#23,#24,#25,#26,#27,#28,#29,#30,#31,#32,#33,#34,#35,#36,#37,#38,#39,#40,#41,#42,#43,#44,#45),#6);
#2=PRODUCT_DEFINITION_CONTEXT('',#46,'design');
#3=APPLICATION_PROTOCOL_DEFINITION('INTERNATIONAL STANDARD','automotive_design',1994,#46);
#4=PRODUCT_CATEGORY_RELATIONSHIP('NONE','NONE',#47,#48);
#5=SHAPE_DEFINITION_REPRESENTATION(#49,#50);
#6= (GEOMETRIC_REPRESENTATION_CONTEXT(3)GLOBAL_UNCERTAINTY_ASSIGNED_CONTEXT((#53))GLOBAL_UNIT_ASSIGNED_CONTEXT((#55,#56,#57))REPRESENTATION_CONTEXT('NONE','WORKSPACE'));
#10=STYLED_ITEM('',(#59),#60);
#11=STYLED_ITEM('',(#61),#62);
#12=STYLED_ITEM('',(#63),#64);
#13=STYLED_ITEM('',(#65),#66);
#14=STYLED_ITEM('',(#67),#68);
#15=STYLED_ITEM('',(#69),#70);
#16=STYLED_ITEM('',(#71),#72);
#17=STYLED_ITEM('',(#73),#74);
#18=STYLED_ITEM('',(#75),#76);
#19=STYLED_ITEM('',(#77),#78);
#20=STYLED_ITEM('',(#79),#80);
#21=STYLED_ITEM('',(#81),#82);
#22=STYLED_ITEM('',(#83),#84);
#23=STYLED_ITEM('',(#85),#86);
#24=STYLED_ITEM('',(#87),#88);
#25=STYLED_ITEM('',(#89),#90);
#26=STYLED_ITEM('',(#91),#92);
#27=STYLED_ITEM('',(#93),#94);
#28=STYLED_ITEM('',(#95),#96);
#29=STYLED_ITEM('',(#97),#98);
#30=STYLED_ITEM('',(#99),#100);
#31=STYLED_ITEM('',(#101),#102);
#32=STYLED_ITEM('',(#103),#104);
#33=STYLED_ITEM('',(#105),#106);
#34=STYLED_ITEM('',(#107),#108);
#35=STYLED_ITEM('',(#109),#110);
#36=STYLED_ITEM('',(#111),#112);
#37=STYLED_ITEM('',(#113),#114);
#38=STYLED_ITEM('',(#115),#116);
#39=STYLED_ITEM('',(#117),#118);
#40=STYLED_ITEM('',(#119),#120);
#41=STYLED_ITEM('',(#121),#122);
#42=STYLED_ITEM('',(#123),#124);
#43=STYLED_ITEM('',(#125),#126);
#44=STYLED_ITEM('',(#127),#128);
#45=STYLED_ITEM('',(#129),#130);
#46=APPLICATION_CONTEXT(' ');
#47=PRODUCT_CATEGORY('part','NONE');
#48=PRODUCT_RELATED_PRODUCT_CATEGORY('detail',' ',(#131));
#49=PRODUCT_DEFINITION_SHAPE('NONE','NONE',#132);
#50=ADVANCED_BREP_SHAPE_REPRESENTATION('1',(#94,#133),#6);
#53=UNCERTAINTY_MEASURE_WITH_UNIT(LENGTH_MEASURE(1.0E-006),#55,'','');
#55= (CONVERSION_BASED_UNIT('MILLIMETRE',#136)LENGTH_UNIT()NAMED_UNIT(#139));
#56= (NAMED_UNIT(#141)PLANE_ANGLE_UNIT()SI_UNIT($,.RADIAN.));
#57= (NAMED_UNIT(#141)SOLID_ANGLE_UNIT()SI_UNIT($,.STERADIAN.));
#59=PRESENTATION_STYLE_ASSIGNMENT((#147));
#60=ADVANCED_FACE('',(#148),#149,.F.);
#61=PRESENTATION_STYLE_ASSIGNMENT((#150));
#62=EDGE_CURVE('',#124,#112,#151,.T.);
#63=PRESENTATION_STYLE_ASSIGNMENT((#152));
#64=EDGE_CURVE('',#92,#118,#153,.T.);
#65=PRESENTATION_STYLE_ASSIGNMENT((#154));
#66=EDGE_CURVE('',#128,#112,#155,.T.);
#67=PRESENTATION_STYLE_ASSIGNMENT((#156));
#68=ADVANCED_FACE('',(#157),#158,.T.);
#69=PRESENTATION_STYLE_ASSIGNMENT((#159));
#70=EDGE_CURVE('',#116,#126,#160,.T.);
#71=PRESENTATION_STYLE_ASSIGNMENT((#161));
#72=EDGE_CURVE('',#82,#126,#162,.T.);
#73=PRESENTATION_STYLE_ASSIGNMENT((#163));
#74=EDGE_CURVE('',#96,#88,#164,.T.);
#75=PRESENTATION_STYLE_ASSIGNMENT((#165));
#76=ADVANCED_FACE('',(#166),#167,.F.);
#77=PRESENTATION_STYLE_ASSIGNMENT((#168));
#78=ADVANCED_FACE('',(#169),#170,.F.);
#79=PRESENTATION_STYLE_ASSIGNMENT((#171));
#80=EDGE_CURVE('',#88,#96,#172,.T.);
#81=PRESENTATION_STYLE_ASSIGNMENT((#173));
#82=VERTEX_POINT('',#174);
#83=PRESENTATION_STYLE_ASSIGNMENT((#175));
#84=EDGE_CURVE('',#88,#92,#176,.T.);
#85=PRESENTATION_STYLE_ASSIGNMENT((#177));
#86=EDGE_CURVE('',#126,#96,#178,.T.);
#87=PRESENTATION_STYLE_ASSIGNMENT((#179));
#88=VERTEX_POINT('',#180);
#89=PRESENTATION_STYLE_ASSIGNMENT((#181));
#90=EDGE_CURVE('',#118,#92,#182,.T.);
#91=PRESENTATION_STYLE_ASSIGNMENT((#183));
#92=VERTEX_POINT('',#184);
#93=PRESENTATION_STYLE_ASSIGNMENT((#185));
#94=MANIFOLD_SOLID_BREP('1',#186);
#95=PRESENTATION_STYLE_ASSIGNMENT((#187));
#96=VERTEX_POINT('',#188);
#97=PRESENTATION_STYLE_ASSIGNMENT((#189));
#98=EDGE_CURVE('',#118,#96,#190,.T.);
#99=PRESENTATION_STYLE_ASSIGNMENT((#191));
#100=ADVANCED_FACE('',(#192),#193,.F.);
#101=PRESENTATION_STYLE_ASSIGNMENT((#194));
#102=ADVANCED_FACE('',(#195),#196,.F.);
#103=PRESENTATION_STYLE_ASSIGNMENT((#197));
#104=ADVANCED_FACE('',(#198),#199,.T.);
#105=PRESENTATION_STYLE_ASSIGNMENT((#200));
#106=ADVANCED_FACE('',(#201,#202),#203,.T.);
#107=PRESENTATION_STYLE_ASSIGNMENT((#204));
#108=ADVANCED_FACE('',(#205),#206,.F.);
#109=PRESENTATION_STYLE_ASSIGNMENT((#207));
#110=EDGE_CURVE('',#126,#82,#208,.T.);
#111=PRESENTATION_STYLE_ASSIGNMENT((#209));
#112=VERTEX_POINT('',#210);
#113=PRESENTATION_STYLE_ASSIGNMENT((#211));
#114=EDGE_CURVE('',#112,#128,#212,.T.);
#115=PRESENTATION_STYLE_ASSIGNMENT((#213));
#116=VERTEX_POINT('',#214);
#117=PRESENTATION_STYLE_ASSIGNMENT((#215));
#118=VERTEX_POINT('',#216);
#119=PRESENTATION_STYLE_ASSIGNMENT((#217));
#120=EDGE_CURVE('',#88,#82,#218,.T.);
#121=PRESENTATION_STYLE_ASSIGNMENT((#219));
#122=EDGE_CURVE('',#128,#124,#220,.T.);
#123=PRESENTATION_STYLE_ASSIGNMENT((#221));
#124=VERTEX_POINT('',#222);
#125=PRESENTATION_STYLE_ASSIGNMENT((#223));
#126=VERTEX_POINT('',#224);
#127=PRESENTATION_STYLE_ASSIGNMENT((#225));
#128=VERTEX_POINT('',#226);
#129=PRESENTATION_STYLE_ASSIGNMENT((#227));
#130=EDGE_CURVE('',#82,#116,#228,.T.);
#131=PRODUCT('1','1','PART-1-DESC',(#229));
#132=PRODUCT_DEFINITION('NONE','NONE',#230,#2);
#133=AXIS2_PLACEMENT_3D('',#231,#232,#233);
#136=LENGTH_MEASURE_WITH_UNIT(LENGTH_MEASURE(1.0),#234);
#139=DIMENSIONAL_EXPONENTS(1.0,0.0,0.0,0.0,0.0,0.0,0.0);
#141=DIMENSIONAL_EXPONENTS(0.0,0.0,0.0,0.0,0.0,0.0,0.0);
#147=SURFACE_STYLE_USAGE(.BOTH.,#235);
#148=FACE_OUTER_BOUND('',#236,.T.);
#149=CONICAL_SURFACE('',#237,1.935,1.0471975511966);
#150=CURVE_STYLE('',#238,POSITIVE_LENGTH_MEASURE(1.0E-006),#239);
#151=CIRCLE('',#240,16.0);
#152=CURVE_STYLE('',#241,POSITIVE_LENGTH_MEASURE(1.0E-006),#242);
#153=CIRCLE('',#243,3.99999999999997);
#154=CURVE_STYLE('',#244,POSITIVE_LENGTH_MEASURE(1.0E-006),#245);
#155=CIRCLE('',#246,9.32737905308881);
#156=SURFACE_STYLE_USAGE(.BOTH.,#247);
#157=FACE_OUTER_BOUND('',#248,.T.);
#158=SPHERICAL_SURFACE('',#249,16.0);
#159=CURVE_STYLE('',#250,POSITIVE_LENGTH_MEASURE(1.0E-006),#251);
#160=LINE('',#252,#253);
#161=CURVE_STYLE('',#254,POSITIVE_LENGTH_MEASURE(1.0E-006),#255);
#162=CIRCLE('',#256,3.87);
#163=CURVE_STYLE('',#257,POSITIVE_LENGTH_MEASURE(1.0E-006),#258);
#164=CIRCLE('',#259,3.87);
#165=SURFACE_STYLE_USAGE(.BOTH.,#260);
#166=FACE_OUTER_BOUND('',#261,.T.);
#167=CONICAL_SURFACE('',#262,3.935,0.00866644968879043);
#168=SURFACE_STYLE_USAGE(.BOTH.,#263);
#169=FACE_OUTER_BOUND('',#264,.T.);
#170=CYLINDRICAL_SURFACE('',#265,3.87);
#171=CURVE_STYLE('',#266,POSITIVE_LENGTH_MEASURE(1.0E-006),#267);
#172=CIRCLE('',#268,3.87);
#173=POINT_STYLE(' ',#269,POSITIVE_LENGTH_MEASURE(1.0E-006),#270);
#174=CARTESIAN_POINT('',(-3.87000000000006,2.06229542108908E-014,19.0599999999999));
#175=CURVE_STYLE('',#271,POSITIVE_LENGTH_MEASURE(1.0E-006),#272);
#176=LINE('',#273,#274);
#177=CURVE_STYLE('',#275,POSITIVE_LENGTH_MEASURE(1.0E-006),#276);
#178=LINE('',#277,#278);
#179=POINT_STYLE(' ',#279,POSITIVE_LENGTH_MEASURE(1.0E-006),#280);
#180=CARTESIAN_POINT('',(-3.87000000000006,-2.93657535219619E-013,14.9999999999999));
#181=CURVE_STYLE('',#281,POSITIVE_LENGTH_MEASURE(1.0E-006),#282);
#182=CIRCLE('',#283,3.99999999999997);
#183=POINT_STYLE(' ',#284,POSITIVE_LENGTH_MEASURE(1.0E-006),#285);
#184=CARTESIAN_POINT('',(-4.00000000000003,-3.04198994698733E-013,-6.3948846218409E-014));
#185=SURFACE_STYLE_USAGE(.BOTH.,#286);
#186=CLOSED_SHELL('',(#60,#78,#104,#102,#76,#68,#106,#108,#100));
#187=POINT_STYLE(' ',#287,POSITIVE_LENGTH_MEASURE(1.0E-006),#288);
#188=CARTESIAN_POINT('',(3.86999999999998,2.05390094359072E-014,14.9999999999999));
#189=CURVE_STYLE('',#289,POSITIVE_LENGTH_MEASURE(1.0E-006),#290);
#190=LINE('',#291,#292);
#191=SURFACE_STYLE_USAGE(.BOTH.,#293);
#192=FACE_OUTER_BOUND('',#294,.T.);
#193=CONICAL_SURFACE('',#295,1.935,1.0471975511966);
#194=SURFACE_STYLE_USAGE(.BOTH.,#296);
#195=FACE_OUTER_BOUND('',#297,.T.);
#196=CONICAL_SURFACE('',#298,3.935,0.00866644968879043);
#197=SURFACE_STYLE_USAGE(.BOTH.,#299);
#198=FACE_OUTER_BOUND('',#300,.T.);
#199=SPHERICAL_SURFACE('',#301,16.0);
#200=SURFACE_STYLE_USAGE(.BOTH.,#302);
#201=FACE_BOUND('',#303,.T.);
#202=FACE_OUTER_BOUND('',#304,.T.);
#203=PLANE('',#305);
#204=SURFACE_STYLE_USAGE(.BOTH.,#306);
#205=FACE_OUTER_BOUND('',#307,.T.);
#206=CYLINDRICAL_SURFACE('',#308,3.87);
#207=CURVE_STYLE('',#309,POSITIVE_LENGTH_MEASURE(1.0E-006),#310);
#208=CIRCLE('',#311,3.87);
#209=POINT_STYLE(' ',#312,POSITIVE_LENGTH_MEASURE(1.0E-006),#313);
#210=CARTESIAN_POINT('',(-9.32737905308886,2.09346923174846E-014,-6.3948846218409E-014));
#211=CURVE_STYLE('',#314,POSITIVE_LENGTH_MEASURE(1.0E-006),#315);
#212=CIRCLE('',#316,9.32737905308881);
#213=POINT_STYLE(' ',#317,POSITIVE_LENGTH_MEASURE(1.0E-006),#318);
#214=CARTESIAN_POINT('',(-5.6843418860808E-014,2.15690636702147E-014,21.2943455417638));
#215=POINT_STYLE(' ',#319,POSITIVE_LENGTH_MEASURE(1.0E-006),#320);
#216=CARTESIAN_POINT('',(3.99999999999991,2.28729232127613E-014,-6.3948846218409E-014));
#217=CURVE_STYLE('',#321,POSITIVE_LENGTH_MEASURE(1.0E-006),#322);
#218=LINE('',#323,#324);
#219=CURVE_STYLE('',#325,POSITIVE_LENGTH_MEASURE(1.0E-006),#326);
#220=CIRCLE('',#327,16.0);
#221=POINT_STYLE(' ',#328,POSITIVE_LENGTH_MEASURE(1.0E-006),#329);
#222=CARTESIAN_POINT('',(-5.6843418860808E-014,2.10972439997189E-014,28.9999999999999));
#223=POINT_STYLE(' ',#330,POSITIVE_LENGTH_MEASURE(1.0E-006),#331);
#224=CARTESIAN_POINT('',(3.86999999999995,2.17058733575686E-014,19.0599999999999));
#225=POINT_STYLE(' ',#332,POSITIVE_LENGTH_MEASURE(1.0E-006),#333);
#226=CARTESIAN_POINT('',(9.32737905308875,2.28729232127613E-014,-6.3948846218409E-014));
#227=CURVE_STYLE('',#334,POSITIVE_LENGTH_MEASURE(1.0E-006),#335);
#228=LINE('',#336,#337);
#229=PRODUCT_CONTEXT('',#46,'mechanical');
#230=PRODUCT_DEFINITION_FORMATION_WITH_SPECIFIED_SOURCE(' ','NONE',#131,.NOT_KNOWN.);
#231=CARTESIAN_POINT('',(0.0,0.0,0.0));
#232=DIRECTION('',(0.0,0.0,1.0));
#233=DIRECTION('',(1.0,0.0,0.0));
#234= (NAMED_UNIT(#139)LENGTH_UNIT()SI_UNIT(.MILLI.,.METRE.));
#235=SURFACE_SIDE_STYLE('',(#339));
#236=EDGE_LOOP('',(#340,#341,#342));
#237=AXIS2_PLACEMENT_3D('',#343,#344,#345);
#238=DRAUGHTING_PRE_DEFINED_CURVE_FONT('continuous');
#239=COLOUR_RGB('',0.509803950786591,0.509803950786591,0.588235318660736);
#240=AXIS2_PLACEMENT_3D('',#346,#347,#348);
#241=DRAUGHTING_PRE_DEFINED_CURVE_FONT('continuous');
#242=COLOUR_RGB('',0.509803950786591,0.509803950786591,0.588235318660736);
#243=AXIS2_PLACEMENT_3D('',#349,#350,#351);
#244=DRAUGHTING_PRE_DEFINED_CURVE_FONT('continuous');
#245=COLOUR_RGB('',0.509803950786591,0.509803950786591,0.588235318660736);
#246=AXIS2_PLACEMENT_3D('',#352,#353,#354);
#247=SURFACE_SIDE_STYLE('',(#355));
#248=EDGE_LOOP('',(#356,#357,#358));
#249=AXIS2_PLACEMENT_3D('',#359,#360,#361);
#250=DRAUGHTING_PRE_DEFINED_CURVE_FONT('continuous');
#251=COLOUR_RGB('',0.509803950786591,0.509803950786591,0.588235318660736);
#252=CARTESIAN_POINT('',(1.93499999999995,2.13343888941329E-014,20.1771727708819));
#253=VECTOR('',#362,1.0);
#254=DRAUGHTING_PRE_DEFINED_CURVE_FONT('continuous');
#255=COLOUR_RGB('',0.509803950786591,0.509803950786591,0.588235318660736);
#256=AXIS2_PLACEMENT_3D('',#363,#364,#365);
#257=DRAUGHTING_PRE_DEFINED_CURVE_FONT('continuous');
#258=COLOUR_RGB('',0.509803950786591,0.509803950786591,0.588235318660736);
#259=AXIS2_PLACEMENT_3D('',#366,#367,#368);
#260=SURFACE_SIDE_STYLE('',(#369));
#261=EDGE_LOOP('',(#370,#371,#372,#373));
#262=AXIS2_PLACEMENT_3D('',#374,#375,#376);
#263=SURFACE_SIDE_STYLE('',(#377));
#264=EDGE_LOOP('',(#378,#379,#380,#381));
#265=AXIS2_PLACEMENT_3D('',#382,#383,#384);
#266=DRAUGHTING_PRE_DEFINED_CURVE_FONT('continuous');
#267=COLOUR_RGB('',0.509803950786591,0.509803950786591,0.588235318660736);
#268=AXIS2_PLACEMENT_3D('',#385,#386,#387);
#269=PRE_DEFINED_MARKER('');
#270=COLOUR_RGB('',0.509803950786591,0.509803950786591,0.588235318660736);
#271=DRAUGHTING_PRE_DEFINED_CURVE_FONT('continuous');
#272=COLOUR_RGB('',0.509803950786591,0.509803950786591,0.588235318660736);
#273=CARTESIAN_POINT('',(-3.93500000000003,-2.98928264959175E-013,7.49999999999994));
#274=VECTOR('',#388,1.0);
#275=DRAUGHTING_PRE_DEFINED_CURVE_FONT('continuous');
#276=COLOUR_RGB('',0.509803950786591,0.509803950786591,0.588235318660736);
#277=CARTESIAN_POINT('',(3.86999999999995,2.15715337885469E-014,17.0299999999999));
#278=VECTOR('',#389,1.0);
#279=PRE_DEFINED_MARKER('');
#280=COLOUR_RGB('',0.509803950786591,0.509803950786591,0.588235318660736);
#281=DRAUGHTING_PRE_DEFINED_CURVE_FONT('continuous');
#282=COLOUR_RGB('',0.509803950786591,0.509803950786591,0.588235318660736);
#283=AXIS2_PLACEMENT_3D('',#390,#391,#392);
#284=PRE_DEFINED_MARKER('');
#285=COLOUR_RGB('',0.509803950786591,0.509803950786591,0.588235318660736);
#286=SURFACE_SIDE_STYLE('',(#393));
#287=PRE_DEFINED_MARKER('');
#288=COLOUR_RGB('',0.509803950786591,0.509803950786591,0.588235318660736);
#289=DRAUGHTING_PRE_DEFINED_CURVE_FONT('continuous');
#290=COLOUR_RGB('',0.509803950786591,0.509803950786591,0.588235318660736);
#291=CARTESIAN_POINT('',(3.93499999999997,3.39235474276629E-013,7.49999999999994));
#292=VECTOR('',#394,1.0);
#293=SURFACE_SIDE_STYLE('',(#395));
#294=EDGE_LOOP('',(#396,#397,#398));
#295=AXIS2_PLACEMENT_3D('',#399,#400,#401);
#296=SURFACE_SIDE_STYLE('',(#402));
#297=EDGE_LOOP('',(#403,#404,#405,#406));
#298=AXIS2_PLACEMENT_3D('',#407,#408,#409);
#299=SURFACE_SIDE_STYLE('',(#410));
#300=EDGE_LOOP('',(#411,#412,#413));
#301=AXIS2_PLACEMENT_3D('',#414,#415,#416);
#302=SURFACE_SIDE_STYLE('',(#417));
#303=EDGE_LOOP('',(#418,#419));
#304=EDGE_LOOP('',(#420,#421));
#305=AXIS2_PLACEMENT_3D('',#422,#423,#424);
#306=SURFACE_SIDE_STYLE('',(#425));
#307=EDGE_LOOP('',(#426,#427,#428,#429));
#308=AXIS2_PLACEMENT_3D('',#430,#431,#432);
#309=DRAUGHTING_PRE_DEFINED_CURVE_FONT('continuous');
#310=COLOUR_RGB('',0.509803950786591,0.509803950786591,0.588235318660736);
#311=AXIS2_PLACEMENT_3D('',#433,#434,#435);
#312=PRE_DEFINED_MARKER('');
#313=COLOUR_RGB('',0.509803950786591,0.509803950786591,0.588235318660736);
#314=DRAUGHTING_PRE_DEFINED_CURVE_FONT('continuous');
#315=COLOUR_RGB('',0.509803950786591,0.509803950786591,0.588235318660736);
#316=AXIS2_PLACEMENT_3D('',#436,#437,#438);
#317=PRE_DEFINED_MARKER('');
#318=COLOUR_RGB('',0.509803950786591,0.509803950786591,0.588235318660736);
#319=PRE_DEFINED_MARKER('');
#320=COLOUR_RGB('',0.509803950786591,0.509803950786591,0.588235318660736);
#321=DRAUGHTING_PRE_DEFINED_CURVE_FONT('continuous');
#322=COLOUR_RGB('',0.509803950786591,0.509803950786591,0.588235318660736);
#323=CARTESIAN_POINT('',(-3.87000000000006,2.06229542108908E-014,17.0299999999999));
#324=VECTOR('',#439,1.0);
#325=DRAUGHTING_PRE_DEFINED_CURVE_FONT('continuous');
#326=COLOUR_RGB('',0.509803950786591,0.509803950786591,0.588235318660736);
#327=AXIS2_PLACEMENT_3D('',#440,#441,#442);
#328=PRE_DEFINED_MARKER('');
#329=COLOUR_RGB('',0.509803950786591,0.509803950786591,0.588235318660736);
#330=PRE_DEFINED_MARKER('');
#331=COLOUR_RGB('',0.509803950786591,0.509803950786591,0.588235318660736);
#332=PRE_DEFINED_MARKER('');
#333=COLOUR_RGB('',0.509803950786591,0.509803950786591,0.588235318660736);
#334=DRAUGHTING_PRE_DEFINED_CURVE_FONT('continuous');
#335=COLOUR_RGB('',0.509803950786591,0.509803950786591,0.588235318660736);
#336=CARTESIAN_POINT('',(-1.93500000000006,2.08600991053049E-014,20.1771727708819));
#337=VECTOR('',#443,1.0);
#339=SURFACE_STYLE_FILL_AREA(#444);
#340=ORIENTED_EDGE('',*,*,#130,.T.);
#341=ORIENTED_EDGE('',*,*,#70,.T.);
#342=ORIENTED_EDGE('',*,*,#110,.T.);
#343=CARTESIAN_POINT('',(-5.6843418860808E-014,2.10972439997189E-014,20.1771727708819));
#344=DIRECTION('',(0.0,-0.0,-1.0));
#345=DIRECTION('',(1.0,9.48656069211166E-020,0.0));
#346=CARTESIAN_POINT('',(-5.4308678409834E-014,2.20769290827768E-014,12.9999999999999));
#347=DIRECTION('',(1.22460635382238E-016,-1.0,0.0));
#348=DIRECTION('',(0.0,0.0,1.0));
#349=CARTESIAN_POINT('',(-5.6843418860808E-014,2.10972439997189E-014,-6.3948846218409E-014));
#350=DIRECTION('',(0.0,0.0,-1.0));
#351=DIRECTION('',(1.0,9.48656069211166E-020,0.0));
#352=CARTESIAN_POINT('',(-5.6843418860808E-014,2.10972439997189E-014,-6.3948846218409E-014));
#353=DIRECTION('',(0.0,0.0,-1.0));
#354=DIRECTION('',(1.0,9.48656069211166E-020,0.0));
#355=SURFACE_STYLE_FILL_AREA(#445);
#356=ORIENTED_EDGE('',*,*,#62,.T.);
#357=ORIENTED_EDGE('',*,*,#66,.F.);
#358=ORIENTED_EDGE('',*,*,#122,.T.);
#359=CARTESIAN_POINT('',(-5.4308678409834E-014,2.20769290827768E-014,12.9999999999999));
#360=DIRECTION('',(0.0,0.0,-1.0));
#361=DIRECTION('',(-1.0,0.0,0.0));
#362=DIRECTION('',(0.866025403784438,1.0613617723014E-016,-0.500000000000001));
#363=CARTESIAN_POINT('',(-5.6843418860808E-014,2.10972439997189E-014,19.0599999999999));
#364=DIRECTION('',(0.0,0.0,-1.0));
#365=DIRECTION('',(1.0,9.48656069211166E-020,0.0));
#366=CARTESIAN_POINT('',(-5.6843418860808E-014,2.10972439997189E-014,14.9999999999999));
#367=DIRECTION('',(0.0,0.0,-1.0));
#368=DIRECTION('',(1.0,9.48656069211166E-020,0.0));
#369=SURFACE_STYLE_FILL_AREA(#446);
#370=ORIENTED_EDGE('',*,*,#98,.T.);
#371=ORIENTED_EDGE('',*,*,#80,.F.);
#372=ORIENTED_EDGE('',*,*,#84,.T.);
#373=ORIENTED_EDGE('',*,*,#64,.T.);
#374=CARTESIAN_POINT('',(-2.8421709430404E-014,2.01536046587273E-014,7.49999999999994));
#375=DIRECTION('',(0.0,-0.0,-1.0));
#376=DIRECTION('',(1.0,8.09656892039829E-014,0.0));
#377=SURFACE_STYLE_FILL_AREA(#447);
#378=ORIENTED_EDGE('',*,*,#86,.F.);
#379=ORIENTED_EDGE('',*,*,#72,.F.);
#380=ORIENTED_EDGE('',*,*,#120,.F.);
#381=ORIENTED_EDGE('',*,*,#80,.T.);
#382=CARTESIAN_POINT('',(-5.6843418860808E-014,2.10972439997189E-014,9.59499999999993));
#383=DIRECTION('',(-0.0,-0.0,1.0));
#384=DIRECTION('',(1.0,9.48656069211166E-020,0.0));
#385=CARTESIAN_POINT('',(-5.6843418860808E-014,2.10972439997189E-014,14.9999999999999));
#386=DIRECTION('',(0.0,0.0,-1.0));
#387=DIRECTION('',(1.0,9.48656069211166E-020,0.0));
#388=DIRECTION('',(-0.00866634120351919,-7.02737574070028E-016,-0.999962446559942));
#389=DIRECTION('',(-0.0,-0.0,-1.0));
#390=CARTESIAN_POINT('',(-5.6843418860808E-014,2.10972439997189E-014,-6.3948846218409E-014));
#391=DIRECTION('',(0.0,0.0,-1.0));
#392=DIRECTION('',(1.0,9.48656069211166E-020,0.0));
#393=SURFACE_STYLE_FILL_AREA(#448);
#394=DIRECTION('',(-0.00866634120351919,-7.02737574070029E-016,0.999962446559942));
#395=SURFACE_STYLE_FILL_AREA(#449);
#396=ORIENTED_EDGE('',*,*,#130,.F.);
#397=ORIENTED_EDGE('',*,*,#72,.T.);
#398=ORIENTED_EDGE('',*,*,#70,.F.);
#399=CARTESIAN_POINT('',(-5.6843418860808E-014,2.10972439997189E-014,20.1771727708819));
#400=DIRECTION('',(0.0,-0.0,-1.0));
#401=DIRECTION('',(1.0,9.48656069211166E-020,0.0));
#402=SURFACE_STYLE_FILL_AREA(#450);
#403=ORIENTED_EDGE('',*,*,#98,.F.);
#404=ORIENTED_EDGE('',*,*,#90,.T.);
#405=ORIENTED_EDGE('',*,*,#84,.F.);
#406=ORIENTED_EDGE('',*,*,#74,.F.);
#407=CARTESIAN_POINT('',(-2.8421709430404E-014,2.01536046587273E-014,7.49999999999994));
#408=DIRECTION('',(0.0,-0.0,-1.0));
#409=DIRECTION('',(1.0,8.09656892039829E-014,0.0));
#410=SURFACE_STYLE_FILL_AREA(#451);
#411=ORIENTED_EDGE('',*,*,#62,.F.);
#412=ORIENTED_EDGE('',*,*,#122,.F.);
#413=ORIENTED_EDGE('',*,*,#114,.F.);
#414=CARTESIAN_POINT('',(-5.4308678409834E-014,2.20769290827768E-014,12.9999999999999));
#415=DIRECTION('',(0.0,0.0,-1.0));
#416=DIRECTION('',(-1.0,0.0,0.0));
#417=SURFACE_STYLE_FILL_AREA(#452);
#418=ORIENTED_EDGE('',*,*,#90,.F.);
#419=ORIENTED_EDGE('',*,*,#64,.F.);
#420=ORIENTED_EDGE('',*,*,#66,.T.);
#421=ORIENTED_EDGE('',*,*,#114,.T.);
#422=CARTESIAN_POINT('',(6.66368952654433,2.28729232127613E-014,-6.3948846218409E-014));
#423=DIRECTION('',(0.0,0.0,-1.0));
#424=DIRECTION('',(-1.0,0.0,0.0));
#425=SURFACE_STYLE_FILL_AREA(#453);
#426=ORIENTED_EDGE('',*,*,#86,.T.);
#427=ORIENTED_EDGE('',*,*,#74,.T.);
#428=ORIENTED_EDGE('',*,*,#120,.T.);
#429=ORIENTED_EDGE('',*,*,#110,.F.);
#430=CARTESIAN_POINT('',(-5.6843418860808E-014,2.10972439997189E-014,9.59499999999993));
#431=DIRECTION('',(-0.0,-0.0,1.0));
#432=DIRECTION('',(1.0,9.48656069211166E-020,0.0));
#433=CARTESIAN_POINT('',(-5.6843418860808E-014,2.10972439997189E-014,19.0599999999999));
#434=DIRECTION('',(0.0,0.0,-1.0));
#435=DIRECTION('',(1.0,9.48656069211166E-020,0.0));
#436=CARTESIAN_POINT('',(-5.6843418860808E-014,2.10972439997189E-014,-6.3948846218409E-014));
#437=DIRECTION('',(0.0,0.0,-1.0));
#438=DIRECTION('',(1.0,9.48656069211166E-020,0.0));
#439=DIRECTION('',(-0.0,-0.0,1.0));
#440=CARTESIAN_POINT('',(-5.4308678409834E-014,2.20769290827768E-014,12.9999999999999));
#441=DIRECTION('',(1.22460635382238E-016,-1.0,0.0));
#442=DIRECTION('',(0.0,0.0,1.0));
#443=DIRECTION('',(0.866025403784438,1.0613617723014E-016,0.500000000000001));
#444=FILL_AREA_STYLE('',(#454));
#445=FILL_AREA_STYLE('',(#455));
#446=FILL_AREA_STYLE('',(#456));
#447=FILL_AREA_STYLE('',(#457));
#448=FILL_AREA_STYLE('',(#458));
#449=FILL_AREA_STYLE('',(#459));
#450=FILL_AREA_STYLE('',(#460));
#451=FILL_AREA_STYLE('',(#461));
#452=FILL_AREA_STYLE('',(#462));
#453=FILL_AREA_STYLE('',(#463));
#454=FILL_AREA_STYLE_COLOUR('',#464);
#455=FILL_AREA_STYLE_COLOUR('',#465);
#456=FILL_AREA_STYLE_COLOUR('',#466);
#457=FILL_AREA_STYLE_COLOUR('',#467);
#458=FILL_AREA_STYLE_COLOUR('',#468);
#459=FILL_AREA_STYLE_COLOUR('',#469);
#460=FILL_AREA_STYLE_COLOUR('',#470);
#461=FILL_AREA_STYLE_COLOUR('',#471);
#462=FILL_AREA_STYLE_COLOUR('',#472);
#463=FILL_AREA_STYLE_COLOUR('',#473);
#464=COLOUR_RGB('',0.509803950786591,0.509803950786591,0.588235318660736);
#465=COLOUR_RGB('',0.509803950786591,0.509803950786591,0.588235318660736);
#466=COLOUR_RGB('',0.509803950786591,0.509803950786591,0.588235318660736);
#467=COLOUR_RGB('',0.509803950786591,0.509803950786591,0.588235318660736);
#468=COLOUR_RGB('',0.509803950786591,0.509803950786591,0.588235318660736);
#469=COLOUR_RGB('',0.509803950786591,0.509803950786591,0.588235318660736);
#470=COLOUR_RGB('',0.509803950786591,0.509803950786591,0.588235318660736);
#471=COLOUR_RGB('',0.509803950786591,0.509803950786591,0.588235318660736);
#472=COLOUR_RGB('',0.509803950786591,0.509803950786591,0.588235318660736);
#473=COLOUR_RGB('',0.509803950786591,0.509803950786591,0.588235318660736);
ENDSEC;
END-ISO-10303-21;
